Song name
# A B C D E F G H I J K L M N O P Q R S T U V W X Y Z

Young Guns - Daughter Of The Sea tab

Intro tab learned by ear. A popular song for any good YG fan and a great riff in general :D


|9-9------7--------------------------------|
|----9------9------------------------------|
|------9------9-8-9------------------------|
|-----------------------|              x 6-|
|------------------------------------------|
|------------------------------------------|


MAIN RIFF \m/


|----------------------------------| ------------------------|
|----------------------------------| ------------------------|
|----------------------------------| ------------------------|
|----------------------------------| ------------------------|
|--x3-5---------3-5-3-5--3-5------| ----3-5-3--------|   x 2-|
|0------5-6-3-5---------------5-6-| 3-5-------5-3-0----------|

3rd time ending


|------------------|
|------------------|
|------------------|
|6---3---5---0-----|
|6---3---5---0-----|
|6---3---5---0-----|


Thanks, please rate and have fun learning!
Tap to rate this tab
 
# A B C D E F G H I J K L M N O P Q R S T U V W X Y Z