Guitaretab - guitar tabs
Song name
# A B C D E F G H I J K L M N O P Q R S T U V W X Y Z

Young Guns - Bones drum

Bones by Young guns drum tab
This sound right

BD  Bass Drum                  HH  High Hat                         
SD  Snare Drum                 C1  Crash 1
MT  Mid Tom                    C2  Crash 2
HT  High Tom
FT  Floor Tom

(Intro)

HH|----------------|------------0---|----------------|----------------|
SD|----0-------0---|----0-------0---|----0-------0---|----0-------0-0-|
BD|0-0-0-0-0-0-0---|0-0-0-0-0-0-0---|0-0-0-0-0-0-0---|0-0-0-0-0-0--0-0|
FT|0-0---000000----|0-0---000000----|0-0---000000----|0-0---0000000-0-|

C2|X---------------|----------------|X---------------|----------------|
C1|--X-X-X-X-X-X-X-|X-X-X-X-X-X-X-X-|--X-X-X-X-X-X-X-|X-X-X-X-X-X-----|
SD|----0-------0---|----0-------0---|----0-------0---|----0-------0-0-|
BD|0-0--00--00----0|0-0--00--00-----|0-0--00--00----0|0-0--00-0-0--0-0|
FT|----------------|----------------|----------------|------------0-0-|

(Verse 1)

HH|----------------|--------------0-|----------------|----------------|
SD|----0-------0---|----0-------0---|----0-------0---|----0-------0-0-|
BD|0-0-0-0-0-0-0---|0-0-0-0-0-0-0---|0-0-0-0-0-0-0---|0-0-0-0-0-0--0--|
FT|0-0---000000----|0-0---000000----|0-0---000000----|0-0---000000----|

HH|----------------|--------------0-|----------------|----------------|
SD|----0-------0---|----0-------0---|----0-------0---|----0-----000000|
BD|0-0-0-0-0-0-0---|0-0-0-0-0-0-0---|0-0-0-0-0-0-0---|0-0-0-0-0-0-0-0-|
FT|0-0---000000----|0-0---000000----|0-0---000000----|0-0---000-------|

(Chorus) 

C2|X---------------|----------------|X---------------|----------------|
C1|--X-X-X-X-X-X-X-|X-X-X-X-X-X-X-X-|--X-X-X-X-X-X-X-|X-X-X-X-X-X-----|
SD|----0-------0---|----0-------0--0|----0-------0---|----0-------0-0-|
BD|0-0--00-0-0----0|0-0--00-0-0-----|0-0--00-0-0----0|0-0--00-0-0--0-0|
FT|----------------|----------------|----------------|------------0-0-|

C2|X---------------|----------------|X---------------|----------------|
C1|--X-X-X-X-X-X-X-|X-X-X-X-X-X-X-X-|--X-X-X-X-X-X-X-|X-X-X-X-X-X-----|
SD|----0-------0---|----0-------0--0|----0-------0---|----0-------0-0-|
BD|0-0--00--00----0|0-0--00--00-----|0-0--00--00----0|0-0--00-0-0--0-0|
FT|----------------|----------------|----------------|------------0-0-|

(Pre-verse)

HH|----------------|--------------0-|----------------|----------------|
SD|----0-------0---|----0-------0---|----0-------0---|----0-------0-0-|
BD|0-0-0-0-0-0-0---|0-0-0-0-0-0-0---|0-0-0-0-0-0-0---|0-0-0-0-0-0--0--|
FT|0-0---000000----|0-0---000000----|0-0---000000----|0-0---000000----|



(Verse 2)
[ Tab from: http://www.guitaretab.com/y/young-guns/316800.html ]
HH|----------------|--------------0-|----------------|----------------|
SD|----0-------0---|----0-------0---|----0-------0---|----0----000-000|
HT|----------------|----------------|----------------|--------0---0---|
BD|0-0-0-0-0-0-0---|0-0-0-0-0-0-0---|0-0-0-0-0-0-0---|0-0-0-0-0-0-0-0-|
FT|0-0---000000----|0-0---000000----|0-0---000000----|0-0---0---------|

(Chorus 2)

C2|X---------------|----------------|X---------------|----------------|
C1|--X-X-X-X-X-X-X-|X-X-X-X-X-X-X-X-|--X-X-X-X-X-X-X-|X-X-X-X-X-X-----|
SD|----0-------0---|----0-------0--0|----0-------0---|----0-------0-0-|
BD|0-0--00-0-0----0|0-0--00-0-0-----|0-0--00-0-0----0|0-0--00-0-0--0-0|
FT|----------------|----------------|----------------|------------0-0-|

C2|X---------------|----------------|X---------------|----------------|
C1|--X-X-X-X-X-X-X-|X-X-X-X-X-X-X-X-|--X-X-X-X-X-X-X-|X-X-X-X-X-X-----|
SD|----0-------0---|----0-------0--0|----0-------0---|----0-------0-0-|
BD|0-0--00--00----0|0-0--00--00-----|0-0--00--00----0|0-0--00-0-0--0-0|

(Bridge)

C1|X---------------|----------------|X---------------|--------X-X-X-X-|
HH|--o-o-o-o-o-o-o-|o-o-o-o-o-o-o-0-|--0-0-0-0-0-0-0-|0-0-0-0---------|
SD|0-0-0-0-0-0-0-0-|0-0-0-0-0-0-0-0-|0-0-0-0-0-0-0-0-|0-0-0-0-0-0-0-0-|
BD|-0-0-----0-0----|-0-0-----0-0-0--|-0-0-0-0-0-0-0-0|-0-0-0-0-0-0-0-0|

C1|------------X-X-|----------------|X---X-X--X--X-X-|X---X-X-X---X---|
HH|0-0-0-0-0-0-----|0-0-0-0-0-0-0-0-|----------------|----------------|
SD|0-0-0-0-0-0-0-0-|0-0-0-0--00-0-0-|0ddd0d0dd0dd0d0dddddddddddddd0ddd|
BD|-0-0-0-0-0-0-0-0|-0-0-0-0---0-0--|----------------|----------------|
FT|----------------|----------------|----------------|----------------|

C1|X---X-X--X--X-X-|X---X-X-X-------|
SD|0ddd0d0dd0dd0d0d|0ddd0d0d0-000000| 
BD|----------------|----------------|


(Chorus)

C2|X---------------|----------------|X---------------|----------------|
C1|--X-X-X-X-X-X-X-|X-X-X-X-X-X-X-X-|--X-X-X-X-X-X-X-|X-X-X-X-X-X-----|
SD|----0-------0---|----0-------0--0|----0-------0---|----0-------0-0-|
BD|0-0--00-0-0----0|0-0--00-0-0-----|0-0--00-0-0----0|0-0--00-0-0--0-0|
FT|----------------|----------------|----------------|------------0-0-|

C2|X---------------|----------------|X---------------|----------------|
C1|--X-X-X-X-X-X-X-|X-X-X-X-X-X-X-X-|--X-X-X-X-X-X-X-|X-X-X-X-X-X-----|
SD|----0-------0---|----0-------0--0|----0-------0---|----0---0--0---0|
BD|0-0--00--00----0|0-0--00--00-----|0-0--00--00----0|0-0--00--00-00--|






(Outro)

C2|X---------------|----------------|X---------------|X---------------|
C1|--X-X-X-X-X-X-X-|X-X-X-X-X-X-X---|--X-X-X-X-X-X-X-|X---------------|
SD|----0-------0---|----0-----0--0-0|----0-------0-0-|----------------|
BD|0-0--00--00----0|0-0--00-0-0--0-|0-0--00--00--0-0|0---------------|
Related for Bones drum
Bones chords by Young Guns