Song name
# A B C D E F G H I J K L M N O P Q R S T U V W X Y Z

Young Guns - Bones tab

Intro:gtr1
|---------------------------------|
|-------7-7-7-7-7-------5-5-5-2-2-|
|-4-4-4-----------4-4-4-----------| 4x
|---------------------------------|
|---------------------------------|
|---------------------------------|

gtr2:start at 3rd time of gtr1 playing the intro.

|-----------------------------------|
|-----------------------------------|
|-----------------------------------| 2x
|000000-4444444444-2222222222222222-|
|000000-4444444444-2222222222222222-|
|000000-4444444444-2222222222222222-|

Verse:gtr1
|---------------------------------|
|-------7-7-7-7-7-------5-5-5-2-2-|
|-4-4-4-----------4-4-4-----------| 4x
|---------------------------------|
|---------------------------------|
|---------------------------------|

gtr2
|-x-x-x-xxxx-x-x-|
|-x-x-x-xxxx-x-x-|
|-x-x-x-xxxx-x-x-| 8x
|-x-x-x-xxxx-x-x-|
|-x-x-x-xxxx-x-x-|
|-x-x-x-xxxx-x-x-|

pre chorus:
gtr1/gtr2
|-----------------------------------|
|-----------------------------------|
|-----------------------------------| 2x
|000000-4444444444-2222222222222222-|
|000000-4444444444-2222222222222222-|
|000000-4444444444-2222222222222222-|

...i feel it in my ...
          |-xx-xx-|
          |-xx-xx-|
          |-xx-xx-|
          |-xx-xx-|
          |-xx-xx-|
          |-xx-xx-|

Chorus:gtr1
|-----------------------------------|
|-----------------------------------|
|-----------------------------------| 2x
|000000-4444444444-2222222222222222-|
|000000-4444444444-2222222222222222-|
|000000-4444444444-2222222222222222-|

gtr2
|---------------------------------|
|-------7-7-7-7-7-------5-5-5-2-2-|
|-4-4-4-----------4-4-4-----------| 2x
|---------------------------------|
|---------------------------------|
|---------------------------------|

Post chorus:
|-x-x-x-xxxx-x-x-|
|-x-x-x-xxxx-x-x-|
|-x-x-x-xxxx-x-x-| 4x
|-x-x-x-xxxx-x-x-|
|-x-x-x-xxxx-x-x-|
|-x-x-x-xxxx-x-x-|

SOLO:

|----------------------------------------|
|----------------------------------------|
|----------------------------------------|
|-4--2-44-2-44-2-44-7-4--2-44-2-4--------|
|--------------------------------2-4-5-7-|
|----------------------------------------|

|-------------------------------------|
|-------------------------------------|
|-------------------------------------|
|-4--2-44-2-44-2-44-7-4--2-44---------|
|-----------------------------2-2-402-|
|-------------------------------------|

Bridge:

|------------------------------------------------------|
|------------------------------------------------------|
|------------------------------------------------------|
|-4-4-4444444-4-4-444444444-4-4-44444444-4-4-444444444-|
|------------------------------------------------------|
|------------------------------------------------------|

|------------------------------------------------------|
|------------------------------------------------------|
|------------------------------------------------------|
|-4-2----------4-2----------4-2----------4-2-----------|
|------------------------------------------------------|
|------------------------------------------------------|


that's it
hope you like my tabs ;)
enjoy playing this easy but great song and have fun:)
Tap to rate this tab
 
# A B C D E F G H I J K L M N O P Q R S T U V W X Y Z