Song name
# A B C D E F G H I J K L M N O P Q R S T U V W X Y Z

Young Hines - Cant Explode tab

-------------------------------------------------------------------------------
                            Can't Explode - Young Hines
-------------------------------------------------------------------------------
Tabbed by: 21stCenturyMan
E-mail: Michael_Harris1@live.ca

Tuning: Half Step Down 


Intro:
e|-------------------------------------------------------------------------|
B|-------------------------------------------------------------------------|
G|-------------------------------------------------------------------------|
D|----4--6--7--------------------------------------------------------------|
A|----7--7--9--------------------------------------------------------------|
E|-------------------------------------------------------------------------|

The chorus rhythm can get a little tricky, listen to the song to get it right:

e|-------------------------------------------------------------------------|
B|-------------------------------------------------------------------------|
G|-------------------------------------------------------------------------|
D|---4-4-4--4-4-4-4---4-4---4--4-4-4-4-------------------------------------|
A|---4-4-4--4-4-4-4---4-4---4--4-4-4-4-------------------------------------|
E|---0-2-2--2-0-2-0---2-2---2--2-0-2-0-------------------------------------|


e|-------------------------------------------------------------------------|
B|-------------------------------------------------------------------------|
G|-------------------------------------------------------------------------|
D|---3-3-3--3-3-3-3---3-3---3--3-3-3-3-------------------------------------|
A|---3-3-3--3-3-3-3---3-3---3--3-3-3-3-------------------------------------|
E|---1-1-1--1-1-1-1---1-1---1--1-1-1-1-------------------------------------|

e|-------------------------------------------------------------------------|
B|-------------------------------------------------------------------------|
G|-------------------------------------------------------------------------|
D|---2-2-2--2-2-2-2---2-2---2--2-2-2-2-------------------------------------|
A|---2-2-2--2-2-2-2---2-2---2--2-2-2-2-------------------------------------|
E|---0-0-0--0-0-0-0---0-0---0--0-0-0-0-------------------------------------|


Verse:
e|-------------------------------------------------------------------------|
B|-------------------------------------------------------------------------|
G|-------------------------------------------------------------------------|
D|---4--4-4----9--7------------4--4-4----2---3-----------------------------|
A|---4--4-4----9--7---(X3)-----4--4-4----2---3-----------------------------|
E|---2--2-2----7--5------------2--2-2----0---1-----------------------------|


The rest of the song just repeats those parts and the bridge alternates between an F#5 and an E5.

Lyrics:

I've been leaning off the edge of my pillow
Waiting for you to call
If I can't say something nice and funny
I won't say nothing at all

Cuz I can't explode
No I can't Explode
I can't explowowde

Some Folks are up the creak without a paddle
You're up the creak without a boat
Some folks take the reigns in the saddle
The rest are swinging from a rope

But I can't explode
No I can't Explode
I can't explowowde
No I can't explode

You won't find nothin' if you don't move fast
You'll only find s**t with your head up your a$$
You can't find nothing, you won't find nothing at all...
no no no no no...

BUT I CAN'T EXPLODE
No I can't explode
I can't explode
Ouuuu
Ouuu Ouuu...

Tap to rate this tab
# A B C D E F G H I J K L M N O P Q R S T U V W X Y Z