Song name
# A B C D E F G H I J K L M N O P Q R S T U V W X Y Z

Young Jeezy - By The Way tab

e|-------------------------------------------------------------------------------|
B|-------------------------------------------------------------------------------|
G|-10----9-10-12--------9---12---10-9-10-----10----9-10-12--------9--------------| 
D|-----------------12----------------------------------------12-------12-10-12---|
A|-------------------------------------------------------------------------------|
E|-------------------------------------------------------------------------------|



e|-------------------------------------------------------------------------------|
B|-10------8--------------8-----------------10------8----------------------------|
G|--------------7----9-----------10-9-10-----------------7----9------------------|
D|--------------------------------------------------------------------12-10-12---|
A|-------------------------------------------------------------------------------|
E|-------------------------------------------------------------------------------|
Tap to rate this tab
# A B C D E F G H I J K L M N O P Q R S T U V W X Y Z