Song name
# A B C D E F G H I J K L M N O P Q R S T U V W X Y Z

Young Jeezy - El Jefe tab

Guitar part for the intro to new Young Jeezy Mixtape "It's Tha World"
Seems to have a little spanish twang to it, very soothing. 
Very easy to improvise with, very fun. Enjoy.


e|--4p2-4---------------------2h4-4/5-4-2-2/4-2-0------------------------------|
B|------------------------------------------------2----------------------------|
G|-----------------------------------------------------------------------------| 
D|-----------------------------------------------------------------------------|
A|-----------------------------------------------------------------------------|
E|-----------------------------------------------------------------------------|



e|--2--------------------------------------------------------------------------|
B|----5-4--------------------------5-----4--2--0--2----------------------------|
G|-----------------------------------------------------------------------------| 
D|-----------------------------------------------------------------------------|
A|-----------------------------------------------------------------------------|
E|-----------------------------------------------------------------------------|


************************************

| /   slide up
| h   hammer-on
| p   pull-off


************************************
Tap to rate this tab
# A B C D E F G H I J K L M N O P Q R S T U V W X Y Z