Song name
# A B C D E F G H I J K L M N O P Q R S T U V W X Y Z

Young Knives - Turn Tail Acoustic tab

-------------------------------------------------------------------------------
			     Turn Tail - Young Knives
-------------------------------------------------------------------------------
Tabbed by:Coleby
Email:imyourmonarch@hotmail.co.uk

Tuning:Standard

Noticed there were no good tabs of this so here goes

Riff A

e|---------------------------------------------------------------------------|
B|--------8-------8-------8-------8------------------------------------------|
G|---------------------------------------------------------------------------|
D|--10-10---10-10---10-10---10-10--------------------------------------------|
A|---------------------------------------------------------------------------|
E|---------------------------------------------------------------------------|

Riff B

e|---------------------------------------------------------------------------|
B|-8--8--8--8--5--5-/10-10-10-10--8------------------------------------------|
G|-9--9--9--9--5--5-/10-10-10-10--9------------------------------------------|
D|---------------------------------------------------------------------------|
A|---------------------------------------------------------------------------|
E|---------------------------------------------------------------------------|

Verse Riff

e|---------------------------------------------------------------------------|
B|-----8-------8-------8-------8---------------------------------------------|
G|-------9-------9-------9-------9-------------------------------------------|
D|-10------10------10------10------------------------------------------------|
A|---------------------------------------------------------------------------|
E|---------------------------------------------------------------------------|

Chorus

   F     C
e|-1-and-0-------------------------------------------------------------------|
B|-1-----1-------------------------------------------------------------------|
G|-2-----0-------------------------------------------------------------------|
D|-3-----2-------------------------------------------------------------------|
A|-3-----3-------------------------------------------------------------------|
E|-1-----x-------------------------------------------------------------------|
"We're all slaves on this ship..." strumming pattern is fairly simple 
you should be able to work it out for yourself

Bridge

e|-0-and-0-------------------------------------------------------------------|
B|-1-----1-------------------------------------------------------------------|
G|-2-----0-------------------------------------------------------------------|
D|-2-----2-------------------------------------------------------------------|
A|-0-----3-------------------------------------------------------------------|
E|-------x-------------------------------------------------------------------|
"Turn tail and run!..."

Thats everything apart from the solo, its hard to make out but i am working on it. 


| /  slide up
| \  slide down
| h  hammer-on
| p  pull-off
| ~  vibrato
| +  harmonic
| x  Mute note
===============================================================================
Tap to rate this tab
 
# A B C D E F G H I J K L M N O P Q R S T U V W X Y Z