Song name
# A B C D E F G H I J K L M N O P Q R S T U V W X Y Z

Young Knives - Shes Attracted To tab

------------------------------------------------------------------------
The Young Knives - She's Attracted To (guitar tab)
------------------------------------------------------------------------
Tabbed by: J (a.k.a. Tufty)

This song is so funny, it's great! Here's a guitar tab for ya/

Tuning: Just the normal EADGBE for this one, guys.

Song starts with The House of Lords (bassist). At around 14 secs, guitar starts with...

Intro: (use harmonics)
e|---12------------------------------------------------------|
B|------12---------------------------------------------------|
G|---------12------------------------------------------------|
D|------------12---------------------------------------------|
A|---------------12--(let ring and use a bit of tremolo arm)-|
E|-----------------------------------------------------------|

Verse and "Lalalala" bit:
e|-------------------------------------------|
B|-------------------------------------------|
G|---7------------------------12-12---10-10--|
D|---7------------------------12-12---10-10--|
A|---5-(let ring)-------------10-10---8--8---|
E|-------------------------------------------|

e|-------------------------------------------|
B|-------------------------------------------|
G|--7--7-7-7---7--7-7-7---7--7-7-7-----------|
D|--7--7-7-7---7--7-7-7---7--7-7-7---7-5-----|
A|--5--5-5-5---7--7-7-5---7--7-7-5-------8-7-|
E|---------5----------5----------5-----------| (x2)

Last part of the "punching your Dad" thing and rants (distorted effect):
e|-12--10-12--10--12--10-12-10--10---------------------------------|
B|---------------------------------12--10-12--10--12--10-12-10--10-|
G|-----------------------------------------------------------------|
D|-----------------------------------------------------------------|
A|-----------------------------------------------------------------|
E|-----------------------------------------------------------------|
Tap to rate this tab
# A B C D E F G H I J K L M N O P Q R S T U V W X Y Z