Guitaretab - guitar tabs
Song name
# A B C D E F G H I J K L M N O P Q R S T U V W X Y Z

Young Knives - Terra Firma tab

This is 'The Young Knives' new song, called 'Terra Firma'

If you find out the rest of the song, please send me a message!

Enjoy!

Introduction

E--------------------|
B--------------------|
G------4-------------|
D------------ Repeat-| 16 Times
A---2----------------|
E--------------------|
[ Tab from: http://www.guitaretab.com/y/young-knives/98386.html ]
E-----------------------------------------------|
B-----------------------------------------------|
G-----------------------------------------------|
D-----------------------------------------------|
A---5-7-9--5-7-9--5-7-9--5-7-9--5-7-9-----------|
E-----------------------------------------------|

Chorus

E--------------------------------------------------|
B--------------------------------------------------|
G------4------------7----------6------------5------|
D---------X16----------X4----------X2----------X2--|
A---2-----------5-----------4------------3---------|
E--------------------------------------------------|
Related for Terra Firma tab
Advertisement will be closed in 10 seconds