Song name
# A B C D E F G H I J K L M N O P Q R S T U V W X Y Z

Young Neil - Ambulance tab

Help us improve GuitareTab! Take a short survey!
Tabbed by: micky
Email: mickybrham@hotmail.com

tellison myspace page: http://www.myspace.com/tellison
tellison website: http://www.tellison.co.uk/
gravity dip records website: http://www.gravitydip.com/

Tuning: standard: eadgbe

e|-----<12>----------------------------------------------------------------|
b|-----<12>----------------------------------------------------------------|
g|-----<12>----------------------------------------------------------------|
d|-----<12>---------9-9----12-12------------------------------------------|
a|-----<12>---------7-7----10-10------9-9---9-9-------7---7---------------|
e|-----<12>---------------------------7-7---7-7-------5---5---------------|

e|-------------------------------------------------------------------------|
b|-------------------------------------------------------------------------|
g|-------------------------------------------------------------------------|
d|---9-9---12-12--------------------9---7----------------------------------|
a|---7-7---10-10------9-9--9-9------7---5----------------------------------|
e|--------------------7-7--7-7---------------------------------------------|

do this a few times and then..
pre chorus
e|--------------------------------------------------------------------------|
B|--------------------------------------------------------------------------|
G|--------------------------------------------------------------------------|
D|--7-7---7-7-7--7-7-7---11--9----------------------------------------------|
A|--5-5---5-5-5--5-5-5---9---7-----9-9---9-9-9----7-7---7-7-7---------------|
E|---------------------------------7-7---7-7-7----5-5---5-5-5---------------|

chorus
these are the chords u can work the rhythm out!
e|-------------------------------------------------------------------------|
B|-------------------------------------------------------------------------|
G|----7--------------------------------------------------------------------|
D|----7----7---5-----------------------------------------------------------|
A|----5----7---5-----------------------------------------------------------|
E|---------5---3-----------------------------------------------------------|


e|--------------------------------------------------------------------------|
B|--------------------------------------------------------------------------|
G|--------------------------------------------------------------------------|
D|--------------------------------------------------------------------------|
A|--------------------------------------------------------------------------|
E|-----0-0-0-3-3-3-7-7-7-7-7-7-5-7-5-3--------------------------------------|

pre chorus
e|--------------------------------------------------------------------------|
B|--------------------------------------------------------------------------|
G|--------------------------------------------------------------------------|
D|--7-7---7-7-7--7-7-7---11--9----------------------------------------------|
A|--5-5---5-5-5--5-5-5---9---7-----9-9---9-9-9----7-7---7-7-7---------------|
E|---------------------------------7-7---7-7-7----5-5---5-5-5---------------|

chorus
these are the chords u can work the rhythm out!
e|-------------------------------------------------------------------------|
B|-------------------------------------------------------------------------|
G|----7--------------------------------------------------------------------|
D|----7----7---5-----------------------------------------------------------|
A|----5----7---5-----------------------------------------------------------|
E|---------5---3-----------------------------------------------------------|

the ba ba ba ba ba ba ba bit 
e|-------------------------------------------------------------------------|
b|-------------------------------------------------------------------------|
g|----7-7------------------------------------------------------------------|
d|----7-7---7-7---5-5---5-5------------------------------------------------|
A|----5-5---7-7---5-5---5-5------------------------------------------------|
E|----------5-5---3-3---3-3------------------------------------------------|



chorus
these are the chords u can work the rhythm out!
e|-------------------------------------------------------------------------|
B|-------------------------------------------------------------------------|
G|----7--------------------------------------------------------------------|
D|----7----7---5-----------------------------------------------------------|
A|----5----7---5-----------------------------------------------------------|
E|---------5---3-----------------------------------------------------------|


enddd thankss!!!
Related for Ambulance tab