Song name
# A B C D E F G H I J K L M N O P Q R S T U V W X Y Z

Young Rebel Set - The Lash Of The Whip tab

-------------------------------------------------------------------------------
                   The Lash of the Whip - Young Rebel Set
-------------------------------------------------------------------------------
Tabbed by: AlinaLuetzchen

Tuning: Standard

e|---------------------------------------------------------------------------|
B|---7-5-7-5-7-7-5-7-------------------------------7--5-7-5-7-7-5-7-5-7-5----|
G|-------------------4-6-4----4------------------6---------------------------|
D|--------------------------7---6--6-7-6---4-6-7-----------------------------|
A|---------------------------------------7-----------------------------------|
E|---------------------------------------------------------------------------|

e|--------------------------------------------------------5-7-9-14-----------|
B|-----------------------------------------------------7---------------------|
G|---6-4---4---4-6-4-7-6---------------------6-6--6-6------------------------|
D|-------7---7----------------------6-6--6-6---------------------------------|
A|------------------------8-8--8-8-------------------------------------------|
E|---------------------------------------------------------------------------|
Tap to rate this tab
 
# A B C D E F G H I J K L M N O P Q R S T U V W X Y Z