Song name
# A B C D E F G H I J K L M N O P Q R S T U V W X Y Z

Young Rival - Got What You Need tab

There were no tabs for this song, and I seen a comment on Youtube about someone wanting 
to play this, so I might as well share how to do that...

                     Got What You Need ~ Young Rival


Intro/Verse Riff
----------------------------------------------------------------------|
----------------------------------------------------------------------|
----------------------------------------------------------------------|
------------------2-2-2-2-2-------------------------------------------|
--------------2-5-----------5-2---2-2-2-2-2-5-5-5-2-2-2-2-2-----------|
--3-3-3-3-3-5-------------------5---------------------------5-5-5-----|


----------------------------------------------------------------------|
----------------------------------------------------------------------|
----------------------------------------------------------------------|
----------------------------------------------------------------------|
----------------------------------2-2-2-2-2-2-2-2-2-2-2-2-2-----------|
--3-3-3-3-3-5-5-5-0-0-0-0-0-3-3-3-------------------------------------|

Verse sometimes ends with:
----------|
----------|
----------|
----------|
----------|
--5-5-5---|

Chorus:
----------------------------------------------------------------------|
----------------------------------------------------------------------|
----------------------------------------------------------------------|
------------------2-2-2-2-2-2-2-2-------------------------------------|
----------------------------------2-2-2-2-2-2-2-2-2-2-2-2-2-----------|
--3-3-3-3-3-3-3-3-----------------------------------------------------|

Bridge:
----------------------------------------------------------------------|
----------------------------------------------------------------------|
----------------------------------------------------------------------|
----------------------------------------------------------------------|
--2-2-0-0-4-4-2-2-5-5-4-4-2-2-0-0-2-2-2-2-2-2-2-2-2-2-2-2-2-----------|
----------------------------------------------------------------------|

Awesome Canadian Band! http://www.youngrival.com/
Tap to rate this tab
# A B C D E F G H I J K L M N O P Q R S T U V W X Y Z