Song name
# A B C D E F G H I J K L M N O P Q R S T U V W X Y Z

Young The Giant - Cough Syrup tab

STANDARD TUNING
CAPO 2ND FRET

-------------------------------------------------------------------------------|
-----1---0---0-----------------0-----0-----------------------------------------|
-----------------2---2p0---0h2-----0-----2---2---0---2-------------------------|
---2--------------------------------------------------3---2----3---------------|
-3-----3---3---3---3-----3-----------------------------------------------------|
---------------------------------3-----3---3---3---3----3----3-----------------|

--------------------------------------------------------------------------------|
---------0---0---1---1---3---3-------0---1---1---3~-----------------------------|
-----2-----------------------------0--------------------------------------------|
---3----------------------------------------------------------------------------|
--------------------------------------------------------------------------------|
-1-----1---1---1---1---1---1-----3-----3---3---3-3~-----------------------------|


THIS SEEMS PRETTY CLOSE, HOPE IT IS HELPFUL!!
Tap to rate this tab
 
# A B C D E F G H I J K L M N O P Q R S T U V W X Y Z