Young The Giant - Apartment tab

So this is most of Apartment, at least the gist of it. I'll leave the rest up to 
you because the chords are somewhat repetitive.


                            
e|-10---6----3---8----5---0----5---|
B|-12---6----3---7----7---0----5---|
G|-12---8----5---7----7---7----4---|
D|-11---7----4---7----6---6----0---|
A|-0----8----5---0----5---7----0---|
E|-0----6----3---0----5---0----0---|

After leaving my apartment
I feel this cold inside me
It howls away all through the market
It calls your name

oooh oooh
oooh oooh

On my way to your apartment
I write for fear of silence
You carved a boat to sail my shadow
Now I walk alone

e|-10--6----10--6----10---6---7--- 8------|
B|-12--6----12--6----12---6---7--- 8------|
G|-12--8----12--8----12---8---9---10------|
D|-11--7----11--7----11---7---8---10------|
A|- 0--8---- 0--8---- 0---8---9---10------|
E|- 0--6---- 0--6---- 0---6---7--- 0------|

oooh alright, alright

e|-10---8----3--|
B|-12---8----3--|
G|-12---9----5--|
D|-11---10---4--|
A|-10---9----5--|
E|-10---8----3--|

I hit the sidewalk, and this is how it starts
Caught in a wrinkle when things are fallin apart

e|-10---6----3---8----5---0----5---|
B|-12---6----3---7----7---0----5---|
G|-12---8----5---7----7---7----4---|
D|-11---7----4---7----6---6----0---|
A|-0----8----5---0----5---7----0---|
E|-0----6----3---0----5---0----0---|

After leaving your apartment
I hit the coast by nightfall 
So sure to keep you dreamin
You understood

Oooh, I know, you understood
Yes sir, it shows, I was no good

e|-10--6----10--6----10---6---7--- 8------|
B|-12--6----12--6----12---6---7--- 8------|
G|-12--8----12--8----12---8---9---10------|
D|-11--7----11--7----11---7---8---10------|
A|- 0--8---- 0--8---- 0---8---9---10------|
E|- 0--6---- 0--6---- 0---6---7--- 0------|

ahh, ahh, ahh alright, alright 

e|-10---8----3--|
B|-12---8----3--|
G|-12---10---5--|
D|-11---9----4--|
A|-10---10---5--|
E|-10---8----3--|

I hit the sidewalk, and this is how it starts
Caught in a wrinkle when things are fallin apart

e|-10---8----3--|
B|-10---10---3--|
G|-12---10---5--|
D|-11---9----4--|
A|-12---8----5--|
E|-10---8----3--|

cause sooner or later this is bound to stop
Come on lets save her but were falling hard

e|-10-----3-------5-------5---|
B|-12-----3-------7-------5---|
G|-12-----5-------7-------4---|
D|-11-----4-------6-------0---|
A|-0------5-------5-------0---|
E|-0------3-------5-------0---|
After leaving your apartment
I hear the cold
Tap to rate this tab
 
# A B C D E F G H I J K L M N O P Q R S T U V W X Y Z