Song name
# A B C D E F G H I J K L M N O P Q R S T U V W X Y Z

Young The Giant - Cough Syrup tab

Cough Syrup by Young The Giant
Tabbed by: Alex

So the other tabs for this intro are correct but they seem really complicated to me. So 
what I did is just made a simplified version that is easier to play. Working on writing 
the whole song out. So, more to come!

e|-----------------------------------------------------------------|
B|-----3---2---2-----------------2-----2---------------------------|
G|---2-------------4---4p2---2h4-----2-----4---4---2---2p0---------|
D|-0-----0---0---0---0-----0---------------------------------4---5-|
A|---------------------------------0-----0---0---0---0-----0---0---|
E|-----------------------------------------------------------------|

e|----------------------------------------------------|
B|-----0---2---2---3---3---5---5--------2---3---3---5-|
G|---0--------------------------------2---------------|
D|----------------------------------------------------|
A|----------------------------------0-----0---0---0-0-|
E|-3-----3---3---3---3---3---3---3--------------------|
                                                Let the last notes ring
| h   hammer-on
| p   pull-off
Tap to rate this tab
# A B C D E F G H I J K L M N O P Q R S T U V W X Y Z