Song name
# A B C D E F G H I J K L M N O P Q R S T U V W X Y Z

Young The Giant - Crystallized tab

Crystallize
Young The Giant
Mind Over Matter

Chords & Synthesizer Solo

Intro: C Em Am F 2x

Synthesizer Solo (During Intro - 2nd Time)
e-------3---5---3---0---3--------3---5---3---0---3--------3---5--3--0--3-----|
B---5------------------------5------------------------5----------------------|
G----------------------------------------------------------------------------|
D----------------------------------------------------------------------------|
A----------------------------------------------------------------------------|
E----------------------------------------------------------------------------|

e----------------------------------------------------------------------------|
B---3h5p3---1----------------------------------------------------------------|
G----------------------------------------------------------------------------|
D----------------------------------------------------------------------------|
A----------------------------------------------------------------------------|
E----------------------------------------------------------------------------|

Verse 1

Dm     C     G
Crawl back to life.
                  F
It's been far too long.
C       G
Crystallized
                      Dm
'round interstellar moons.
C         G                    F
Speed of light into your atmosphere.
         C         G
What's your world like?
                    Dm     C    G
Is the house we've built still here?

Girl you know

Synthesizer Solo (Chorus)

e-------3---5---3---0---3--------3---5---3---0---3--------3---5--3--0--3-----|
B---5------------------------5------------------------5----------------------|
G----------------------------------------------------------------------------|
D----------------------------------------------------------------------------|
A----------------------------------------------------------------------------|
E----------------------------------------------------------------------------|

e--------------------------------3---5---3---0---3--------3---5---7---5---3p0-|
B---3h5p3---1----3h5p3---1----5------------------------5----------------------|
G-----------------------------------------------------------------------------|
D-----------------------------------------------------------------------------|
A-----------------------------------------------------------------------------|
E-----------------------------------------------------------------------------|

e------3---5---3---0---3-----------------------------------------------------|
B---5-----------------------3h5p3---1----3h5p3-------------------------------|
G----------------------------------------------------------------------------|
D----------------------------------------------------------------------------|
A----------------------------------------------------------------------------|
E----------------------------------------------------------------------------|


Chorus (Synthesizer Solo - Chorus)

          C
When the beat of my drum
          Em
meets the beat of your heart,
       Am                   F
you'll know I couldn't love any other, any other.
          C
This is where I come from.
          Em
This is where I belong.
          Am
With the beat of your drum.
     F
Not any other.

Verse 2

 Dm    C          G
Fall through the sky.
                F
Little specks below
C     G                    Dm
magnify the further down I go.
          C      G
I feel it in my bones.
                 F
Can you feel it too?
              C          G
Is this the world I've known?
                    Dm     C     G
Is the house we've built still here?
              F    C  G
Is the human race sincere?

Chorus (Synthesizer Solo - Chorus)

          C
When the beat of my drum
           Em
meets the beat of your heart,
           Am                 F
You'll know I couldn't love any other, any other.
         C
This is where I come from.
         Em
This is where I belong.
          Am
With the beat of your drum.
     F
Not any other.

Bridge

 F         C       G
Feel the force of time
                  F
weighing down my mind.
   C       G                     F
Tears you cry, screaming at the sky
  C      G
Come outside.
                      F C G
The rays are shinning bright.

Interlude (Chords & Synthesizer Solo - Same as Chorus)

C Em Am F C Em Am 2X

Ooh

 F        C
Not any other
            Em   Am  F
Feels like home
          C Em   Am    F
Where I belong ah ah

Chorus (Synthesizer Solo - Chorus)

          C
When the beat of my drum
          Em
meets the beat of your heart,
       Am                   F
You'll know I couldn't love any other, any other
          C
This is where I come from.
         Em
This is where I belong.
          Am
With the beat of your drum.
     F
Not any other.

Outro Chords
F C G
Tap to rate this tab
# A B C D E F G H I J K L M N O P Q R S T U V W X Y Z