Song name
# A B C D E F G H I J K L M N O P Q R S T U V W X Y Z

Young The Giant - Its About Time tab

Standard Tuning
Intro
Guitar 1
e---------4---6-4~--------|
b---4-7-6---7--------4~---|
g-4-----------------------|
d-------------------------|  2x
a-------------------------|
e-------------------------|

Guitar 2
e----------------------------------------------------------------------------------------|
b----------------------------------------------------------------------------------------|
g----------------------------------------------------------------------------------------| 2x
d----------------------------------------------------------------------------------------|
a----------------------------------------------------------------------------------------|
e-7h9-9-9-9--7h9-9-9-9--7h9-9-9-9--7h9-9-9-9--5h7-7-7-7--5h7-7-7-7--0h2-2-2-2--0h2-2-2-2-|

Pre-Verse
Guitar 1
e-xxx-(0)-xxx-(4)-xxx-(0)-xxx-----|
b-xxx--5--xxx--4--xxx--5--xxx-7-6-|
g-xxx--6--xxx--4--xxx--6--xxx-x-x-|
d-xxx--6--xxx--6--xxx--6--xxx-4-3-|
a-xxx-(4)-xxx-(6)-xxx-(4)-xxx-----|
e-xxx-----xxx-----xxx-----xxx-----|

Guitar 2
e--------------------------------------------|
b--------------------------------------------|
g--------------------------------------------| repeat as needed
d--------------------------------------------|
a--------------------------------------------|
e-7h9-9-9-9--7h9-9-9-9--7h9-9-9-9--7h9-9-9-9-|

Verse 1
Guitar
e-xxx-(0)-xxx-(4)-xxx-(0)-xxx-(4)-|
b-xxx--5--xxx--4--xxx--5--xxx--4--|
g-xxx--6--xxx--4--xxx--6--xxx--4--| 2x
d-xxx--6--xxx--6--xxx--6--xxx--6--|
a-xxx-(4)-xxx-(6)-xxx-(4)-xxx-(6)-|
e-xxx-----xxx-----xxx-----xxx-----|

e-------------2-2-2-2-2-2-|
b-4-4-4-4-4-4-2-2-2-2-2-2-|
g-4-4-4-4-4-4-2-2-2-2-2-2-|
d-4-4-4-4-4-4-4-4-4-4-4-4-|
a-2-2-2-2-2-2-4-4-4-4-4-4-|
e-------------2-2-2-2-2-2-|

Guitar 2
e--------------------------------------------|
b--------------------------------------------|
g--------------------------------------------| 2x
d--------------------------------------------|
a--------------------------------------------|
e-7h9-9-9-9--7h9-9-9-9--7h9-9-9-9--7h9-9-9-9-|

(Notes in parenthesis on b string optional)
e---------------------------------11p9----11p9---------|
b-(7-7-7-7-7-7-11-11-11-11-11-11)------12------12-9~---|
g--8-8-8-8-8-8-11-11-11-11-11-11-----------------------|
d--9-9-9-9-9-9-13-13-13-13-13-13-----------------------|
a------------------------------------------------------|

e----------------------------------------------------|
b----------------------------------------------------|
g----------9-----------8-----------9-----------11//--|
d-11p9-9-9-9--11p9-9-9-9--11p9-9-9-9--11p9-9-9-------|
a----------------------------------------------------|
e----------------------------------------------------|

Chorus
Guitar 1
e------9-------9--------7-----7-------5-----5-------4-----4---|
b--------10------10-------7-----7-------5-----5-------5-----5-|
g---11----------------8-------------6-------------6-----------|
d-11--------11------9-------9-----7-------7-----6-------6-----|
a-------------------------------------------------------------|
e-------------------------------------------------------------|
e-------------------------------------------------------------|

e-----2---------2-----2---------2-----2---------2-----2---------2-|
b-------2---------------2---------------2---------------2---------|
g-----------------------------------------------------------------|
d-2h4-----4-2h4---2h4-----4-2h4---2h4-----4-2h4---2h4-----4-2h4---|
a-----------------------------------------------------------------|
e-----------------------------------------------------------------|

Guitar 2 (I'll figure it out later)

Post-Chorus
Guitar 1
e---------4---6-4~--------|
b---4-7-6---7--------4~---|
g-4-----------------------|
d-------------------------|
a-------------------------|
e-------------------------|

Guitar 2
e----------------------------------------------------------------------------------|
b----------------------------------------------------------------------------------|
g-------------------------------------------------------------9-8------------------|
d-9h11-11-11-11--9h11-11-11-11--9h11-11-11-11--9h11-11-11-11------11-9-----9-11~---|
a----------------------------------------------------------------------11----------|
e----------------------------------------------------------------------------------|

Verse 2
Guitar 1
e-xxx-(0)-xxx-(4)-xxx-(0)-xxx-(4)-|
b-xxx--5--xxx--4--xxx--5--xxx--4--|
g-xxx--6--xxx--4--xxx--6--xxx--4--| 2x
d-xxx--6--xxx--6--xxx--6--xxx--6--|
a-xxx-(4)-xxx-(6)-xxx-(4)-xxx-(6)-|
e-xxx-----xxx-----xxx-----xxx-----|

e-------------2-2-2-2-2-2-|
b-4-4-4-4-4-4-2-2-2-2-2-2-|
g-4-4-4-4-4-4-3-3-3-3-3-3-|
d-4-4-4-4-4-4-4-4-4-4-4-4-|
a-2-2-2-2-2-2-4-4-4-4-4-4-|
e-------------2-2-2-2-2-2-|

Guitar 2
e------------------------------------------------|
b------------------------------------------------|
g----------9-----------8-----------9-----------8-| 2x
d-11p9-9-9-9--11p9-9-9-9--11p9-9-9-9--11p9-9-9-9-|
a------------------------------------------------|
e------------------------------------------------|

e-------------------11p9----11p9------|
b---------12~------------12------12-9-|
g------11-----------------------------|
d-9h11---------8----------------------|
a----------------11-------------------|
e-------------------------------------|

e-------------------------------------------------------------|
b-------------------------------12~---------------------------|
g-9-8------------------------11--------------11-----11bbr//---|
d-----11-9-----9-11~----9h11----------8h9-11------------------|
a----------11-------------------------------------------------|
e-------------------------------------------------------------|

Chorus

Solo
Guitar 1 (Kinda iffy.  Has some effects to it)
e-9-9-9-9-9~--9-9-9-9-9~--9-9-9-9-9~----------9-9-9-9-9~--14-14-14-14-14~----------16-16-16-16-16-|
b-9-9-9-9-9~--9-9-9-9-9~--9-9-9-9-9~----------9-9-9-9-9~--14-14-14-14-14~----------17-17-17-17-17-|
g-------------------------------------11brbr-------------------------------11brbr-----------------|
d-------------------------------------------------------------------------------------------------|
a-------------------------------------------------------------------------------------------------|
e-------------------------------------------------------------------------------------------------|

e-9-9-9-9-9~--9-9-9-9-9~----------9-9-9-9-9~--9-9-9-9-9~--14-14-14-14-14~----------16-16-16-------|
b-9-9-9-9-9~--9-9-9-9-9~----------9-9-9-9-9~--9-9-9-9-9~--14-14-14-14-14~----------17-17-17-------|
g-------------------------11brbr-------------------------------------------11brbr-----------18//--|
d-------------------------------------------------------------------------------------------------|
a-------------------------------------------------------------------------------------------------|
e-------------------------------------------------------------------------------------------------|

Guitar 2 (Can either tremelo pick or ring out)
e-9~-------14~-------12~-------17~-------16~-------14~-------12~-------16~------|
b-------------------------------------------------------------------------------|
g-------------------------------------------------------------------------------|
d-------------------------------------------------------------------------------|
a-------------------------------------------------------------------------------|
e-------------------------------------------------------------------------------|

e-9~-------14~-------12~-------17~-------17~-------14~-------12~-------16~------|
b-------------------------------------------------------------------------------|
g-------------------------------------------------------------------------------|
d-------------------------------------------------------------------------------|
a-------------------------------------------------------------------------------|
e-------------------------------------------------------------------------------|

Bridge
Guitar 1 (Comes in on second part. Didn't tab it all so know when picking changes.)
e-------14-------14-------14-------14-------14-------14-------14-------------12-------12----|
b----14----14-------14-------14-------14-------14-------14-------14-------14----14-------14-|
g-14----------14-------14-------14-------14-------14-------14-------14-13----------13-------|
d-------------------------------------------------------------------------------------------|
a-------------------------------------------------------------------------------------------|
e-------------------------------------------------------------------------------------------|

Guitar 2 (Tremelo pick or let it ring out)
e-17~------------16~------------14~----19~----17~------------16~------------14~--|
b--------------------------------------------------------------------------------|
g--------------------------------------------------------------------------------|
d--------------------------------------------------------------------------------|
a--------------------------------------------------------------------------------|
e--------------------------------------------------------------------------------|

Last Chorus
Guitar 1
e------9-------9--------7-----7-------5-----5-------4-----4---|
b--------10------10-------7-----7-------5-----5-------5-----5-|
g---11----------------8-------------6-------------6-----------|
d-11--------11------9-------9-----7-------7-----6-------6-----|
a-------------------------------------------------------------|
e-------------------------------------------------------------|
e-------------------------------------------------------------|

e-2-xxxxxx-2-2-xxxxxx-2-2-xxxxxx-2-2-xxxxxx-2-|
b-2-xxxxxx-2-2-xxxxxx-2-2-xxxxxx-2-2-xxxxxx-2-|
g-2-xxxxxx-2-2-xxxxxx-2-2-xxxxxx-2-2-xxxxxx-2-|
d-4-xxxxxx-4-4-xxxxxx-4-4-xxxxxx-4-4-xxxxxx-4-|
a-4-xxxxxx-4-4-xxxxxx-4-4-xxxxxx-4-4-xxxxxx-4-|
e-2-xxxxxx-2-2-xxxxxx-2-2-xxxxxx-2-2-xxxxxx-2-|

e------9-------9--------7-----7-------5-----5-------4-----4---|
b--------10------10-------7-----7-------5-----5-------5-----5-|
g---11----------------8-------------6-------------6-----------|
d-11--------11------9-------9-----7-------7-----6-------6-----|
a-------------------------------------------------------------|
e-------------------------------------------------------------|
e-------------------------------------------------------------|

e-----2---------2-----2---------2-----2---------2-----2---------2-|
b-------2---------------2---------------2---------------2---------|
g-----------------------------------------------------------------|
d-2h4-----4-2h4---2h4-----4-2h4---2h4-----4-2h4---2h4-----4-2h4---|
a-----------------------------------------------------------------|
e-----------------------------------------------------------------|

Guitar 2 (Not sure on the last 4 notes played)
e--------------------------------------------------------------------------------------------12----|
b------------------------------------------------------------------------------------------9----12-|
g------------------------------------------------------9--------------11--------------9--9---------|2x
d-----------------------------------------11p9-11p9-11---11p9-11p9-11----11p9-11p9-11--------------|
a-4-4444-4/6-6666-6/7-7777/11-11111111-------------------------------------------------------------|
e--------------------------------------------------------------------------------------------------|
Tap to rate this tab
# A B C D E F G H I J K L M N O P Q R S T U V W X Y Z