Song name
# A B C D E F G H I J K L M N O P Q R S T U V W X Y Z

Young The Giant - Firelight Acoustic tab

Firelight Acoustic
by Young The Giant

Both guitars usually play the song with a Capo on the 4th fret.

Intro
e|-------------------1-----------------------------------------1----------------------|
B|-----0-1---1h3---------3-----1---0-----0-------0-1---1h3---------3-----3---3-----3--|
G|-----------------0---------0---------0---------------------0---------0---------0----| 
D|---0-----0-----0-----0---0-----0---0-----0---0-----0-----0-----0---0-----0---0-----0|
A|------------------------------------------------------------------------------------|
E|-3---------3-----------3---------3---------3---------3-----------3---------3--------|


Verse 1
e|-------------------1-----------------------------------------1----------------------|
B|-----0-1---1h3---------3-----1---0-----0-------0-1---1h3---------3-----3---3-----3--|
G|-----------------0---------0---------0---------------------0---------0---------0----| (2x)
D|---0-----0-----0-----0---0-----0---0-----0---0-----0-----0-----0---0-----0---0-----0|
A|------------------------------------------------------------------------------------|
E|-3---------3-----------3---------3---------3---------3-----------3---------3--------|

Pre-Chorus
e|-----------5---------|------------3---------|------------------------------------------|
B|-3-----3---------3---|-1-----1----------1---|-0---0-1---0-----0---0---0-1----0-----0---|
G|-----0---------0-----|-----0----------0-----|---------------0--------------------0-----|
D|---4-----4---4-----4-|---2-----2----2-----2-|---0-----0---0-----0---0------0---0-----0-|
A|-5---------5---------|-3----------3---------|------------------------------------------|
E|---------------------|----------------------|-3---------3---------3----------3---------|

e|-----------5---------|------------3---------|-------------------------------------------|
B|-3-----3---------3---|-1-----1----------1---|-0---0-1---0----------0---0-1----0---------|
G|-----0---------0-----|-----0----------0-----|---------------0---------------------0-----|
D|---4-----4---4-----4-|---2-----2----2-----2-|---0-----0---0----------0------0---0-------|
A|-5---------5---------|-3----------3---------|-----------------0h2-------------------0h2-|
E|---------------------|----------------------|-3---------3----------3----------3---------|

Chorus
Guitar 1
e|----3----|----2----|----3----|----2----|----3----|----2--------2--------2----|
B|---0--0--|---3--3--|---0--0--|---3--3--|---0--0--|---3--3-----3--3-----3--3--|
G|---------|---------|---------|---------|---------|---------------------------| (3x)
D|--0----0-|--4----4-|--0----0-|--4----4-|--0----0-|--4----4---4----4---4----4-|
A|---------|-2-------|---------|-2-------|---------|-2--------2--------2-------|
E|-3-------|---------|-3-------|---------|-3-------|---------------------------|

Guitar 2
e|-7-------|-----0---|-7-------|-----0---|-7-------|-----0--------0--------0---|
B|-----8---|-12---12-|-----8---|-12---12-|-----8---|-12---12--12---12--12---12-|
G|----7-7--|---11----|----7-7--|---11----|----7-7--|---11-------11-------11----| (3x)
D|-0h9-----|-12------|-0h9-----|-12------|-0h9-----|-12-------12-------12------|
A|---------|---------|---------|---------|---------|---------------------------|
E|---------|---------|---------|---------|---------|---------------------------|

Guitar 1
e|----0----|---------|-----------------------------------------|
B|---2--2--|----1----|-0---0-0h1-0-----0---0---0-0h1-0-----0---|
G|---------|---0--0--|---------------0-------------------0-----|
D|--2----2-|--2----2-|---0---------0-----0---0---------0-----0-|
A|-0-------|-3-------|-----------------------------------------|
E|---------|---------|-3---------3---------3---------3---------|

Guitar 2
e|-0---------|-----10------|-----------------------------------------|
B|----10-----|--------10---|-0---0-0h1-0-----0---0---0-0h1-0-----0---|
G|---9---9---|---10-----10-|---------------0-------------------0-----|
D|-11-----11-|-10----------|---0---------0-----0---0---------0-----0-|
A|-----------|-------------|-----------------------------------------|
E|-----------|-------------|-3---------3---------3---------3---------|

Pre-Verse
Guitar 1
e|-------------------1-----------------------------------------1----------------------|
B|-----0-1---1h3---------3-----1---0-----0-------0-1---1h3---------3-----3---3-----3--|
G|-----------------0---------0---------0---------------------0---------0---------0----| 
D|---0-----0-----0-----0---0-----0---0-----0---0-----0-----0-----0---0-----0---0-----0|
A|------------------------------------------------------------------------------------|
E|-3---------3-----------3---------3---------3---------3-----------3---------3--------|

Guitar 2
e|-------------------1-----------------------------------------1----------------------|
B|-0---0-1---3-----------3-----1---0-----0---0---0-1---3-----------3-----3---3-----3--|
G|-----------------0---------0---------0---------------------0---------0---------0----| 
D|---0-----0-----0-----0---0-----0---0-----0---0-----0-----0-----0---0-----0---0-----0|
A|------------------------------------------------------------------------------------|
E|-3-------3-3---------3-3-------3-3-------3-3-------3-3---------3-3-------3-3--------|

Both Guitars
e|-----------5---------|------------3---------|-------------------------------------------|
B|-3-----3---------3---|-1-----1----------1---|-0---0-1---0----------0---0-1----0-----0---|
G|-----0---------0-----|-----0----------0-----|---------------0---------------------0-----|
D|---4-----4---4-----4-|---2-----2----2-----2-|---0-----0---0----------0------0---0-------|
A|-5---------5---------|-3----------3---------|-----------------0h2---------------------0-|
E|---------------------|----------------------|-3---------3----------3----------3---------|

Verse 2
Guitar 1
e|-------------------1-----------------------------------------1----------------------|
B|-----0-1---1h3---------3-----1---0-----0-------0-1---1h3---------3-----3---3-----3--|
G|-----------------0---------0---------0---------------------0---------0---------0----| (2x)
D|---0-----0-----0-----0---0-----0---0-----0---0-----0-----0-----0---0-----0---0-----0|
A|------------------------------------------------------------------------------------|
E|-3---------3-----------3---------3---------3---------3-----------3---------3--------|

Guitar 2
e|-------------------1-----------------------------------------1----------------------|
B|-0---0-1---3-----------3-----1---0-----0---0---0-1---3-----------3-----3---3-----3--|
G|-----------------0---------0---------0---------------------0---------0---------0----| (2x)
D|---0-----0-----0-----0---0-----0---0-----0---0-----0-----0-----0---0-----0---0-----0|
A|------------------------------------------------------------------------------------|
E|-3-------3-3---------3-3-------3-3-------3-3-------3-3---------3-3-------3-3--------|

Pre-Chorus
e|-----------5---------|------------3---------|------------------------------------------|
B|-3-----3---------3---|-1-----1----------1---|-0---0-1---0-----0---0---0-1----0-----0---|
G|-----0---------0-----|-----0----------0-----|---------------0--------------------0-----|
D|---4-----4---4-----4-|---2-----2----2-----2-|---0-----0---0-----0---0------0---0-----0-|
A|-5---------5---------|-3----------3---------|------------------------------------------|
E|---------------------|----------------------|-3---------3---------3----------3---------|

e|-----------5---------|------------3---------|-------------------------------------------|
B|-3-----3---------3---|-1-----1----------1---|-0---0-1---0----------0---0-1----0---------|
G|-----0---------0-----|-----0----------0-----|---------------0---------------------0-----|
D|---4-----4---4-----4-|---2-----2----2-----2-|---0-----0---0----------0------0---0-------|
A|-5---------5---------|-3----------3---------|-----------------0h2-------------------0h2-|
E|---------------------|----------------------|-3---------3----------3----------3---------|

Chorus
Guitar 1
e|----3----|----2----|----3----|----2----|----3----|----2--------2--------2----|
B|---0--0--|---3--3--|---0--0--|---3--3--|---0--0--|---3--3-----3--3-----3--3--|
G|---------|---------|---------|---------|---------|---------------------------| (3x)
D|--0----0-|--4----4-|--0----0-|--4----4-|--0----0-|--4----4---4----4---4----4-|
A|---------|-2-------|---------|-2-------|---------|-2--------2--------2-------|
E|-3-------|---------|-3-------|---------|-3-------|---------------------------|

Guitar 2
e|-7-------|-----0---|-7-------|-----0---|-7-------|-----0--------0--------0---|
B|-----8---|-12---12-|-----8---|-12---12-|-----8---|-12---12--12---12--12---12-|
G|----7-7--|---11----|----7-7--|---11----|----7-7--|---11-------11-------11----| (3x)
D|-0h9-----|-12------|-0h9-----|-12------|-0h9-----|-12-------12-------12------|
A|---------|---------|---------|---------|---------|---------------------------|
E|---------|---------|---------|---------|---------|---------------------------|

Guitar 1
e|----0----|---------|-----------------------------------------|----0----|---------|
B|---2--2--|----1----|-0---0-0h1-0-----0---0---0-0h1-0-----0---|---2--2--|----1----|
G|---------|---0--0--|---------------0-------------------0-----|---------|---0--0--|
D|--2----2-|--2----2-|---0---------0-----0---0---------0-----0-|--2----2-|--2----2-|
A|-0-------|-3-------|-----------------------------------------|-0-------|-3-------|
E|---------|---------|-3---------3---------3---------3---------|---------|---------|

Guitar 2
e|-0---------|-----10-----|-----------------------------------------|----------|
B|----10-----|-------10---|-0---0-0h1-0-----0---0---0-0h1-0-----0---|-----10---|
G|---9---9---|---10----10-|---------------0-------------------0-----|---10--10-|
D|-11-----11-|-10---------|---0---------0-----0---0---------0-----0-|-10-------|
A|-----------|------------|-----------------------------------------|----------|
E|-----------|------------|-3---------3---------3---------3---------|----------|

Bridge
Guitar 1
e|---------0----------0------0---0-|-----------|---------0--------3---|
B|-5----------5----------5---------|-8-------8-|-8----------3---------|
G|-----0----------0----------------|-----7-----|-----0----------3-----|
D|---7---7------7---7------7---7---|---7---7---|---7---7------3-----3-|
A|-8----------8----------8---------|-8---------|-5----------5---------|
E|---------------------------------|-----------|----------------------|

Guitar 2
e|-0---0-3----0---0-3----0---0-3---|-3s5----3--|-0---0-3----0---0-3-|
B|---1----------1----------1-------|-----------|---1----------1-----|
G|---------------------------------|-----------|--------------------|
D|-3----------3----------3---------|-----------|-3----------3-------|
A|---------------------------------|-----------|--------------------|
E|---------------------------------|-----------|--------------------|

Guitar 1
e|---------0---------------|-------3----------3---|-------------------|
B|-5----------8-------8--5-|------------3---------|-0---0-1---3-----3-|
G|-----0----------7--------|-3---3----------3-----|---------------0---|
D|---7---7------7---7------|---3-----3----3-----3-|---0-----0---0-----|
A|-8----------8----------8-|-5--------------------|-------------------|
E|-------------------------|------------5---------|-3---------3-------|

Guitar 2
e|-0---0-3----3s5----3-----|---------0------------|------------0------|
B|---1---------------------|------------0---------|-3------------3----|
G|-------------------------|-5---5-5--------5-5---|-----4-0h4------4--|
D|-------------------------|---3----------3-------|---0------0--------|
A|-3-----------------------|----------------------|-------------------|
E|-------------------------|-5----------5---------|-3-----------------|

Guitar 1
e|---------0----------0------0---0-|-----------|-------3----------3--|-------------------|
B|-5----------5----------5---------|-8-------8-|------------3--------|-0---0-1---3-----3-|
G|-----0----------0----------------|-----7-----|-3---3----------3----|---------------0---|
D|---7---7------7---7------7---7---|---7---7---|---3-----3----3-----3|---0-----0---0-----|
A|-8----------8----------8---------|-8---------|-5-------------------|-------------------|
E|---------------------------------|-----------|------------5--------|-3---------3-------|

Guitar 2
e|-0---0-3----0---0-3----0---0-3---|-3s5----3--|---------0------------|------------0------|
B|---1----------1----------1-------|-----------|------------0---------|-3------------3----|
G|---------------------------------|-----------|-5---5-5--------5-5---|-----4-0h4------4--|
D|-3----------3----------3---------|-----------|---3----------3-------|---0------0--------|
A|---------------------------------|-----------|----------------------|-------------------|
E|---------------------------------|-----------|-5----------5---------|-3-----------------|

Verse 3
Guitar 1
e|-0--0-----------------------------------------|
B|-1--3------3---3------3---3------3---3------3-|
G|-2--0------0-0-0------0-0-0------0-0-0------0-| (2x)
D|-2--0----2----------2----------2----------2---|
A|-0--2-----------------------------------------|
E|----3--1----------1----------1----------1-----|

Guitar 2
e|-0--------------------------------------------|-3--------------------------------------------|
B|-1--3------3---3------3---3------3---3------3-|-1--8------3---3------3---3------3---3------3-|
G|-2---------2---2------2---2------2---2------2-|-2--7------2---2------2---2------2---2------2-|
D|-2--------------------------------------------|-2--5-----------------------------------------|
A|-0-------3---3------3---3------3---3------3---|-0--0----3---3------3---3------3---3------3---|
E|---3---1----------1----------1----------1-----|----7--1----------1----------1----------1-----|

Guitar 1
e|-0--3-|------------------------------------------------------------------------------------|
B|-2--1-|-----3---3------3---3------3---3------3---3------3---3------3---3------3---3------3-|
G|-2--0-|-----0-0-0------0-0-0------0-0-0------0-0-0------0-0-0------0-0-0------0-0-0------0-|
D|-2--2-|---2----------2----------2----------2----------2----------2----------2----------2---|
A|-0--3-|------------------------------------------------------------------------------------|
E|------|-1----------1----------1----------1----------1----------1----------1----------1-----|

Guitar 2
e|----2----------|-----------------|
B|-----2------1--|-----3---3-------|
G|--2----------0-|-----2---2-------|skip the eighth one.
D|-2--------2----|-----------(7x)--|
A|---------3-----|---3---3---------|
E|---------------|-1---------------|

Outro (Fade to End)
Guitar 1
e|----------------------------------------------------------------------|
B|----2--------5--------2--------5--------2--------5-------5-------5----|
G|---2--2-----4--4-----2--2-----4--4-----2--2-----4--4----4--4----4--4--|
D|--2----2---6----6---2----2---6----6---2----2---6----6--6----6--6----6-|
A|-0--------4--------0--------4--------0--------4-------4-------4-------|
E|----------------------------------------------------------------------|

Guitar 2
e|-0----------0------------0----------0------------0----------0-----------0-----------0----------|
B|----10----------14----------10----------14----------10----------14----------14---------14------|
G|---9---9------13---13------9---9------13---13------9---9------13---13-----13---13-----13---13--|
D|-11-----11--14-------14--11-----11--14-------14--11-----11--14-------14-14-------14-14------14-|
A|-----------------------------------------------------------------------------------------------|
E|-----------------------------------------------------------------------------------------------|
Tap to rate this tab
# A B C D E F G H I J K L M N O P Q R S T U V W X Y Z