Song name
# A B C D E F G H I J K L M N O P Q R S T U V W X Y Z

Young The Giant - Firelight tab

Firelight - Young the Giant

Listen to the song to understand the rhythm. 

Intro Riff: Standard Tuning (Capo 4)
e|------------------------1-----------------------------------------|
B|--0--------1---1h3----------3---------1---0--------0---0----------|
G|--------0-------------0-----------0-------------0-----------------|
D|-----0-------------0-----------0-------------0--------------------|
A|------------------------------------------------------------------|
E|--3--------3------------3---3---------3---3------------3----------|

e|---------------------1--------------------------------------------------|
B|--------1---1h3----------3--------3---3---------3-----------------------|
G|-----0-------------0-----------0-------------0----------REPEAT----------|
D|--0-------------0-----------0-------------0-----------------------------|
A|------------------------------------------------------------------------|
E|--------3------------3---3--------3---3---------3-----------------------|



(Tell My Friends ....)

e|------------5-------------------3-----------------------------------------|
B|--------3-------3----------1------1-----------1-0-----0--------1-0-----0--|
G|----0------------------0------------0-------0------0---------0-----0------|
D|------4------------------2----------------0----------0-----0---------0----|
A|--5-------5---5------3--------3-------------------------------------------|
E|----------------------------------------3-----3-3--------3-----3-3--------|

Tap to rate this tab
# A B C D E F G H I J K L M N O P Q R S T U V W X Y Z