Song name
# A B C D E F G H I J K L M N O P Q R S T U V W X Y Z

Youngblood Brass Band - Word On The Street tab

-------------------------------------------------------------------------------
                    Word on the Street - Youngblood Brass Band
-------------------------------------------------------------------------------
Tabbed by: Ryan Hancock

Originally played on Sousaphone; a Tuba that wraps around your body.
Use this riff as a basis and add some variations yourself.

If you wish to leave feedback please post a comment.
Thanks.


Tuning: Standard

==========
Basic riff
==========
                  *                 *                  *
G|----------------------------------5----------------------------------------|
D|----------------5------------------------------------5---------------2-----|
A|3------3-------------------------------------------------------------------|
E|---------------------------------------------------------------------------|
                  *                 *                  *
G|----------------5----------------------------------------------------------|
D|3------3-----------------------------------------6-------------------------|
A|----------------------------------6---------6------------------------4-----|
E|---------------------------------------------------------------------------|


| /  slide up
| \  slide down
| h  hammer-on
| p  pull-off
| ~  vibrato
| +  harmonic
| x  Mute note
| *  Start of beat 2, 3 and 4
===============================================================================
Tap to rate this tab
# A B C D E F G H I J K L M N O P Q R S T U V W X Y Z