Song name
# A B C D E F G H I J K L M N O P Q R S T U V W X Y Z

Youngbloodz - Cadillac Pimpin tab

-------------------------------------------------------------------------------
			     Cadillac Pimpin' - Youngbloodz
-------------------------------------------------------------------------------
Tabbed by:Lamine(a.k.a. Sound Mind)
Artist: Youngbloodz
Album: Drankin Patnaz

Tuning:Standard

This is my first tab. This is youngbloodz' first single and it's pretty cool!

e|---------------------------------------------------------------------------|
B|---------------------------------------------------------------------------|
G|----------------------------------------------------8-7---8-7---8-7---8-7--|
D|--6-5---6-5---6-5---6-5----6-5---6-5---6-5---6-5--5-----5-----5-----5------|
A|5-----5-----5-----5------5-----5-----5-----5-------------------------------|
E|---------------------------------------------------------------------------|

e|-------------------------------------------------------------------------------------|
B|-------------------------------------------------------------------------------------|
G|-------------------------------------------------------------------------------------|
D|--6-5---6-5---6-5---6-5--------------------------------------------------------------|
A|5-----5-----5-----5------------------------------------------------------------------|
E|-------------------------------------------------------------------------------------|
Tap to rate this tab
# A B C D E F G H I J K L M N O P Q R S T U V W X Y Z