Song name
# A B C D E F G H I J K L M N O P Q R S T U V W X Y Z

Younger Brother - Psychic Gibbon tab

This is the riff that starts about 2 minutes into the song.

http://www.youtube.com/watch?v=d34hJwMhVto

(/) Slide Up  (\) Slide Down  (h) Hammer On  (p) Pull Off  (b) Bend (r) Release (v) Vibrato


E|--------------------------------------------------------------------------|
B|--8--8--8--6--6--6--5--5--5-----------8--8--8--6--6--6--5--5--5-----------|
G|-----------------------------5--5--5-----------------------------5--5--5--|
D|--------------------------------------------------------------------------|
A|--------------------------------------------------------------------------|
E|--------------------------------------------------------------------------|



E|------------------------------------------------------------------------------|
B|--------3h5--5--5--5--3--3--3-----------------3h5--5--5--5--3--3--3-----------|
G|--7--5-------------------------5--5--5--7--5-------------------------5--5--5--|
D|------------------------------------------------------------------------------|
A|------------------------------------------------------------------------------|
E|------------------------------------------------------------------------------|
Tap to rate this tab
# A B C D E F G H I J K L M N O P Q R S T U V W X Y Z