Song name
# A B C D E F G H I J K L M N O P Q R S T U V W X Y Z

Younha - Houki Boshi tab

-------------------------------------------------------------------------------
			     Houki Boshi - Younha
-------------------------------------------------------------------------------
Tabbed by:Oxalis
Email:jpopandguitar@yahoo.com
the song's solo collection, enjoy
Tuning:standard
intro solo  (let each note ring)
e|--------------------------------------------------------------------------------|
B|--------------------------------------------------------------------------------|
G|---------------2---------4------------------------------------------------------|
D|----3----2---------2------------------------------------------------------------|
A|--------------------------------------------------------------------------------|
E|--------------------------------------------------------------------------------|
   solo after the second verse
e|-------------------------------------------------------------------------------------|
B|-------------------------------------------------------------------------------------|
G|---------------------------------55---------------------777777-----------------------|
D|-----4--55555555--44--55555555-------44--55555555------------------------------------|
A|-------------------------------------------------------------------------------------|
E|-------------------------------------------------------------------------------------|
ending solo is the same as intro solo
e|--------------------------------------------------------------------------------|
B|--------------------------------------------------------------------------------|
G|---------------2---------4------------------------------------------------------|
D|----3----2---------2------------------------------------------------------------|
A|--------------------------------------------------------------------------------|
E|--------------------------------------------------------------------------------|
                         well, that's it. Hope you enjoyed it.
| /  slide up
| \  slide down
| h  hammer-on
| p  pull-off
| ~  vibrato
| +  harmonic
| x  Mute note
===============================================================================
Tap to rate this tab
# A B C D E F G H I J K L M N O P Q R S T U V W X Y Z