Song name
# A B C D E F G H I J K L M N O P Q R S T U V W X Y Z

Your Demise - Fuck Everyone tab

/ - slide;
. - palm mute;
~ - hold;


  00:00-00:19:

e------------------------------------------|
B------------------------------------------|
G------------------------------------------| x7
D-0000-000001~-----------------------------|
A-0000-000001~-----------------------------|
E-0000-000001~-----------------------------|
  .... ....


  00:20-00:29:

e------------------------------------------|
B------------------------------------------|
G------------------------------------------|
D-0~-/slide up pick/-----------------------|
A-0~-/slide up pick/-----------------------|
E-0~-/slide up pick/-----------------------|


  00:30-00:48:

e------------------------------------------|
B------------------------------------------|
G------------------------------------------| x4
D-00000000000000007777777733333333---------|
A-00000000000000007777777733333333---------|
E-00000000000000007777777733333333---------|


  00:49-01:08:

e------------------------------------------|
B------------------------------------------|
G------------------------------------------| x8
D-0000-000007-3----------------------------|
A-0000-000007-3----------------------------|
E-0000-000007-3----------------------------|
  .... .....


  01:09-01:27:

This part ends with slowing guitar temp (you can hear it)

e-------------------------------------------|
B-------------------------------------------|
G-------------------------------------------| x4
D-000073-000073-00007306/1------------------|
A-000073-000073-00007306/1------------------|
E-000073-000073-00007306/1------------------|
   ...    ...    ...  .


  01:28-01:51:

e-------------------------------------------|
B-------------------------------------------|
G-------------------------------------------| x4
D-0-0-0-0-0-0-0-0-0-0-0-0-0-0-7-3-----------|
A-0-0-0-0-0-0-0-0-0-0-0-0-0-0-7-3-----------|
E-0-0-0-0-0-0-0-0-0-0-0-0-0-0-7-3-----------|
    . . . . . . . . . . . . .


  01:52-end:

e-------------------------------------------|
B-------------------------------------------|
G-------------------------------------------|
D-0~-0~-0~-6-1-0----------------------------|
A-0~-0~-0~-6-1-0----------------------------|
E-0~-0~-0~-6-1-0----------------------------|
Tap to rate this tab
# A B C D E F G H I J K L M N O P Q R S T U V W X Y Z