Song name
# A B C D E F G H I J K L M N O P Q R S T U V W X Y Z

Your Favorite Martian - 8-bit World tab

E-------3--5------3-5-1----1--5--8----1-5-8-5-----------|
B----3----------3---------------------------------------|
G-------------------------------------------------------|
D-------------------------------------------------------|
A-------------------------------------------------------|
E-------------------------------------------------------|

E----0--5--8----0-5-8-5---------------------|
B------------------------1--5--8----1-5-8-5-|
G-------------------------------------------|
D-------------------------------------------|
A-------------------------------------------|
E-------------------------------------------|
Just play this whole part for the intro and in the chorus
Tap to rate this tab
# A B C D E F G H I J K L M N O P Q R S T U V W X Y Z