Song name
# A B C D E F G H I J K L M N O P Q R S T U V W X Y Z

Your Hero - A Kingdoms Tale tab

Your Hero - A Kingdoms Tale

Tuning EADGBe


intro part 1
guitar 1

E|-3\2-0--------------3\2-0------------------------------------------|
B|---------3---2---------------3---2------0--------------------------|
G|-------2---2---------------2---2-----0-4-2-0-----------------------|
D|---------------------------------------------2-0-------------------|
A|-------------------------------------------------------------------|
E|-------------------------------------------------------------------|



intro part 2 (both guitars plays this part at the same time)
guitar 1


E|-3\2-0--------------3\2-0------------------------------------------|
B|---------3---2---------------3---2-----0---------------------------|
G|-------2---2---------------2---2-----0---2-0-----------------------|
D|---------------------------------------------2-0-------------------|
A|-------------------------------------------------------------------|
E|-------------------------------------------------------------------|




gitar 2
 
E|-7-------3---0-----------------------------------------------------|
B|-------------------------------------------------------------------|
G|-------------------------------------------------------------------|
D|-------------------------------------------------------------------|
A|-------------------------------------------------------------------|
E|-------------------------------------------------------------------|



verse

C - Em - D - G (both guitars)





chorus 

piano part (guitar 1):


E |--------------------------------------------2------|
B |-----3-0--------3-0------------1-0------------3----|
G |---0-------------------------0---------------------|
D |-2-----------2------------0--------------4---------|
A |-----------3---------------------------5-----------|
E |---------------------------------------------------|




bridge 

guitar 1:

E|-0-0-0-0--2-2-2-2--3-3-3-3--0-0-0-0--2-2-2-2--3-3-3-3--------------|
B|-------------------------------------------------------------------|
G|-------------------------------------------------------------------|
D|-------------------------------------------------------------------|
A|-------------------------------------------------------------------|
E|-------------------------------------------------------------------|



E|-7-7-7-7--5-5-5-5--3-3-5-5--7-7-7-7--5-5-5-5--3-3-5-5--------------|
B|-------------------------------------------------------------------|
G|-------------------------------------------------------------------|
D|-------------------------------------------------------------------|
A|-------------------------------------------------------------------|
E|-------------------------------------------------------------------|


guitar 2:

cadd9 - Em - G - D (repeat)



outtro part 1:

Play the verse with different lyrics.



outtro part 2:

E|---0-0-0-2-2---3---------------------------------------------------|
B|-------------3-----------------------------------------------------|
G|-------------------------------------------------------------------|
D|-------------------------------------------------------------------|
A|-------------------------------------------------------------------|
E|-------------------------------------------------------------------|



The song is constructed in this way:
Intro part 1
Intro part 2
Verse (x2)
Chorus
Intro part 1
Intro part 1
Verse (x1)
Bridge
Chorus
Outtro part 1
outtro part 2
Tap to rate this tab
# A B C D E F G H I J K L M N O P Q R S T U V W X Y Z