Your Imaginary Friends - Nikita tab

NIKITA by Your Imaginary Friends


INTRO:

guitar 1: Esus--E--

guitar 2:
  Esus             E                Esus             E
e|------------------------2----------------------------------------|
B|-------2---------------------------------2-----------------------|
G|-1-2-4---4-----4--1-2-4---4-----4--1-2-4---4-----4--1-2-1-2-1----| 2x
D|-----------2-2--------------2-2--------------2-2--------------2--|
A|-----------------------------------------------------------------|
E|-----------------------------------------------------------------|


VERSE:
 Esus       E
 I love her
                        Esus              E
 like little girls love barbies and pink
 Esus              E
 she’s the fondest
           Esus                E
 memory I got in my childhood days


CHORUS:
C#m                   B
 And I love to see her again
 AM7
 weeping over her diary
                      E
 on her uncle’s black Fuego
                B
 come play patintero with me
  Esus
 again


VERSE:
 Esus       E
 I love her
                      Esus                E
 when she’s in one of her shrieking moods
 Esus                           E
 when will we find the time to talk about poems
               Esus
 and stars and dreams
         E
 like we used to


CHORUS:
C#m                   B
 And I love to see her again
 AM7
 weeping over her diary
                      E
 on her uncle’s black Fuego
                B
 come play patintero with me
  Esus
 again, again


ADLIB: chord pattern ng VERSE..

e|------------------------------------------|
B|------------------------------------------|
G|-2-1-2-1-----------2-2-1-2-1-2-4----------|
D|---------4-2-2-2-2---------------4-2-2-2--|
A|------------------------------------------|
E|------------------------------------------|

e|--------------------------------|
B|--------------------------------|
G|-2-1-2-1------------------------|
D|---------4-2-2-2-2-1-2-1-2-1----|
A|-----------------------------2--|
E|--------------------------------|

e|------------------------------------------|
B|------------------------------------------|
G|-2-1-2-1-----------2-2-1-2-1-2-4----------|
D|---------4-2-2-2-2---------------4-2-2-2--|
A|------------------------------------------|
E|------------------------------------------|

e|--------------------------------|
B|--------------------------------|
G|-2-1-2-1------------------------|
D|---------4-2-2-2-2-1-2-1-2-1----|
A|-----------------------------2--|
E|--------------------------------|


BRIDGE:
 Esus                E
 In the midst of her escapo       \
           Esus          E         many times? hehe
 from aunt jane’s unfair curfews  /


OUTRO: Esus--E--

 I just miss you!...........

 It's summer and you're supposed to be..........

 Here

* ating supportahan ang mga lokal na banda.. hehe..
* eto website nila: http://yourimaginarymusic.com/

NITRAM
10-29-10
07:42 AM
Tap to rate this tab
 
# A B C D E F G H I J K L M N O P Q R S T U V W X Y Z