Song name
# A B C D E F G H I J K L M N O P Q R S T U V W X Y Z

Your Name In Vain - Kiss Me Kill Me tab

  Tabbed By Innoh

  Kiss me Kill me 
by Your Name In Vain


=btw,this is my first tab..so leave some comment,and pls rate..
=YM - "el_devil27"
=Friendster - "el_dimonyo@yahoo.com" 


intro and verse:

e-------------------------------------------|
B-------------------------------------------|
G-------------------------------------------| 4x
D-6666666666---------2222222222-------------|
A-6666666666(2x)-----2222222222(2x)---------|
D-6666666666---------2222222222-------------|

(just figure out the strumming)



chorus:

e-------------------------------------------|
B-------------------------------------------|
G-------------------------------------------| 4x
D-6666---2222222---4444---4444444-----------|
A-6666---2222222---2222---4444444-----------|
D-6666---2222222----------4444444-----------|



2nd verse

e-------------------------------------|
B-------------------------------------|
G-------------------------------------| 4x
D-66666----997755---22222-------------|
A-66666(2x)---------22222(2x)---------|
D-66666-------------22222-------------|





*repeat chorus*




bridge

e-----------------------------------------|
B-----------------------------------------|
G-----------------------------------------| 2x
D-66666666666666--22222222222222--4-------|
A-66666666666666--22222222222222--4-------|
D-66666666666666--22222222222222--4-------|
  ..............  ..............


e-------------------------------------------|
B-------------------------------------------|
G-------------------------------------------| 1x
D-6-6-6-6-6-6-6-6---2-2-2-2-2-2-2-2---------|
A-6-6-6-6-6-6-6-6---2-2-2-2-2-2-2-2---------|
D-6-6-6-6-6-6-6-6---2-2-2-2-2-2-2-2---------|



e-----------------------------------------|
B-----------------------------------------|
G-----------------------------------------| 
D-6-6-6-6-6-6-6-6---2-2-2-2-6-4-2---------|
A-6-6-6-6-6-6-6-6---2-2-2-2-6-4-2---------|
D-6-6-6-6-6-6-6-6---2-2-2-2-6-4-2---------|





*REPEAT CHORUS*




outro



e-----------------------------|
B-----------------------------|
G-----------------------------| 1x
D-6-6-6-6-6-6-6-6--2----------|
A-6-6-6-6-6-6-6-6--2----------|
D-6-6-6-6-6-6-6-6--2----------|


=that's all I got=
-OldTownKhid-
Tap to rate this tab
# A B C D E F G H I J K L M N O P Q R S T U V W X Y Z