Song name
# A B C D E F G H I J K L M N O P Q R S T U V W X Y Z

Your Twenties - Billionaires chords

Highlighted       Show chord diagrams
-------------------------------------------------------------------------------
                          BILLIONAIRES - Your Twenties
-------------------------------------------------------------------------------
Tabbed by: Michael Kenning
E-mail: mk0395@gmail.com

Tuning: Standard

        D       1A      E      G      F#m    2A
e|------5--------0------0-------3--------2-------5---------------------------|
B|------7--------2------0-------3--------2-------5---------------------------|
G|------7--------2------1-------4--------2-------6---------------------------|
D|------7--------2------2-------5--------4-------7---------------------------|
A|------5--------0------2-------5--------4-------7---------------------------|
E|------x--------x------0-------3--------2-------5---------------------------|




Intro and Chorus basically follows the structure:

D, 1A, E, G, F#m, 2A


Listen to the song and you'll understand how it's played.

There's another tab on here which will explain what you play during the verses.




Bridge:

I'm pretty sure that it's:

F#m, D.  E, G.

That's about it I believe. 




Email me with any concerns :)




************************************

| /   slide up
| \   slide down
| h   hammer-on
| p   pull-off
| ~   vibrato
| +   harmonic
| x   Mute note
| b   Bend
| pb  Pre-bend
| br  Bend release
| pbr Pre-bend release
| brb Bend release bend

************************************
Tap to rate this tab
# A B C D E F G H I J K L M N O P Q R S T U V W X Y Z