Song name
# A B C D E F G H I J K L M N O P Q R S T U V W X Y Z

Your Twenties - Sugar The Pill tab

Tuning: EADGBe
Capo: 0

Will complete the tab when I have time.

Intro Bassline
-obviously can be played on bass too but this is the guitar version
e|-----------------------------------------------------------|
B|-----------------------------------------------------------|
G|-----------------------------------------------------------|
D|-----------------------------------------------------------|
A|-----------------------------------------------------------|
E|---------1-1-1-1---1-1-1-1---1---1-1-1---------------------|

Intro Lead
e|-----------------------------------------------------------|
B|-------6-6-8-10--------------------------------------------|
G|-----------------5-5-7-9-----------------------------------|
D|--------------------------7-7-8-10-------------------------|
A|-----------------------------------------------------------|
E|-----------------------------------------------------------|
Tap to rate this tab
# A B C D E F G H I J K L M N O P Q R S T U V W X Y Z