Song name
# A B C D E F G H I J K L M N O P Q R S T U V W X Y Z

Yourcodenameis Milo - All Roads To Fault tab

I havent found a good tab for this excellent song yet,let me have your thoughts and ratings. 

Join and bring back Milo! http://www.bringbackmilo.com/

Intro/Verse

E|-------------------------|               
B|---10----10----10----10--|        
G|-------------------------| x2       
D|-0---0-0---0-0---0-0---0-|
A|-------------------------|
D|-------------------------|

Bridge

E|--------------|    -----------|               
B|--------------|    -----------|   
G|-10-10--9--9--| x2 -----------|      
D|-8--8---0--0--|    -x-(7)-----|
A|-8--8---0--0--|    -x-(7)-----|
D|-8--8---0--0--|    -x-(7)-----|

Intro/Verse x2

Bridge x2


Pre Chorus

E|-------------------------|
B|-------------------------|
G|-------------------------|
D|-------------------------| x3
A|-------------------------|
D|-0-8-0-0-8-0-0-8-0-0-8-0-|

Then

E|-------------------------|
B|-------------------------|
G|-------------------------|
D|-------------------------| 
A|-------------------------|
D|-0-8-0-0-8-0-0-8-0-xx---0|

Chorus

E|------------------------------|
B|------------------------------|
G|------------------------------|
D|------------------------------| x3
A|-5(x12)-9(x12)-10(x12)-4(x12)-|
D|------------------------------|

Intro/Verse

Chorus

Bridge x4

Intro/Verse x2 (very quiet) 


Pre Chorus (2) with tempo change (listen to song for timing)

E|-------------------------|
B|-------------------------|
G|-------------------------|
D|-0-8-0-0-8-0-0-8-0-0-8-0-| x?
A|-0-8-0-0-8-0-0-8-0-0-8-0-|
D|-0-8-0-0-8-0-0-8-0-0-8-0-|

Bridge x2 (over the top of Pre Chorus (2) finishes the song)
Tap to rate this tab
 
# A B C D E F G H I J K L M N O P Q R S T U V W X Y Z