Song name
# A B C D E F G H I J K L M N O P Q R S T U V W X Y Z

Yourcodenameis Milo - Translate tab

==============================================
Song:   Translate
Artist:   yourcodenameis:milo
Album: They Came From The Sun
==============================================

Tuning: Half a step down from Drop D  (or Drop C#)

x - Palm Mute
^ - Bend string

x ---------|
x ----5----|
x ---------|   (very faint, hold note throughout)
x ---------|
x ---------|
x ---------|

x ----------xx-xx----------xx-xx------------xx-xx----------xx-xx----|
x ----------xx-xx----------xx-xx------------xx-xx----------xx-xx----|
x ----------xx-xx----------xx-xx------------xx-xx----------xx-xx----|
x ---8--7 --xx-xx---8--7---xx-xx----8--7 ---xx-xx---8--7---xx-xx----|
x ---6--5 --xx-xx---6--5---xx-xx----6--5 ---xx-xx---6--5---xx-xx----|
x ----------xx-xx----------xx-xx------------xx-xx----------xx-xx----|

x ---------|
x ----5----|
x ---------|  (very faint, hold note throughout)
x ---------|
x ---------|
x ---------|


x ----------xx-xx----------xx-xx------------xx-xx----------xx-xx----|
x ----------xx-xx----------xx-xx------------xx-xx----------xx-xx----|
x ----------xx-xx----------xx-xx------------xx-xx----------xx-xx----|
x ---8--7 --xx-xx---8--7---xx-xx----8--7 ---xx-xx---8--7---xx-xx----| (x2)
x ---6--5 --xx-xx---6--5---xx-xx----6--5 ---xx-xx---6--5---xx-xx----|
x ----------xx-xx----------xx-xx------------xx-xx----------xx-xx----|


x -------------|
x -------------|
x -------------|    (hold)
x -----8-------|
x -----6-------|
x -------------|


x ---------------------------------------------------10^---|
x ---------------------------------------------------------|
x ---------------------------------------------------------|
x ----0-2-3-2--0-------0-2-3-5--0--------0-5-3-0-----------|
x ----0-2-3-2--0-------0-2-3-5--0--------0-5-3-0-----------|
x ----0-2-3-2--0-------0-2-3-5--0--------0-5-3-0-----------|


Listen to the rest of the song, all these parts are in there somewhere!
Tap to rate this tab
 
# A B C D E F G H I J K L M N O P Q R S T U V W X Y Z