Song name
# A B C D E F G H I J K L M N O P Q R S T U V W X Y Z

Youth Alive Wa - Take Over tab

-------------------------------------------------------------------------------
			     TAKE OVER - Youth Alive
-------------------------------------------------------------------------------
Tabbed by: makutoid
Email: makutoid_@hotmail.com

Tuning: Drop D

Yeah this might look familiar. I tabbed version one, but since then I've worked out the 
riff in the bridge, so this is the update :)



For fuller sounding power chords in the chorus:
   Bb  C   G
e|----|----|---|
B|-11-|-13-|-8-|
G|-10-|-12-|-7-|
D|-8--|-10-|-5-|
A|-8--|-10-|-5-|
D|-8--|-10-|-5-|

Intro
  Bb             F              D              Eb
e|-----------------------------|-----------------------------|
B|-----------------------------|-----------------------------|
G|-----------------------------|-----------------------------|
D|-----------------------------|-----------------------------|
A|-----------------------------|-----------------------------|
D|-8-7-0-5-7-5-0-3-3-3-6-5-3-0-|-8-7-0-5-7-5-0-1-1-1-8-8-8-8-|


Verse
   Bb            C                   D
e|---------------------------------|--------------------------------------|
B|---------------------------------|--------------------------------------|
G|---------------------------------|--------------------------------------|
D|-------10---10----------12----12-|----------14-----14----------14----14-|
A|-------8----8-----------10----10-|----------12-----12----------12----12-|
D|-8-8-8----8----10-10-10----10----|-12-12-12-----12----12-12-12----12----|


PreChorus                                                               G  A
e|-13-12-10--10h12--10-8-|------9---9------9---|-13-12-10--10-12--10-8-|----|
B|-----------------------|----9---9------9---9-|-----------------------|----|
G|-----------------------|-11---------11-------|-----------------------|----|
D|-----------------------|---------------------|-----------------------|----|
A|-----------------------|---------------------|-----------------------|----|
D|-----------------------|---------------------|-----------------------|----|

   Bb              C                     G               A
e|---------------|---------------------|---------------|---------------|
B|---------------|---------------------|---------------|---------------|
G|---------------|---------------------|---------------|---------------|
D|-8--8-8--8-8-8-|-10--10-10--10-10-10-|-5--5-5--5-5-5-|-7--7-7--7-7-7-|
A|-8--8-8--8-8-8-|-10--10-10--10-10-10-|-5--5-5--5-5-5-|-7--7-7--7-7-7-|
D|-8--8-8--8-8-8-|-10--10-10--10-10-10-|-5--5-5--5-5-5-|-7--7-7--7-7-7-|
   Bb              C                     G               A
e|---------------|---------------------|---------------|---------------|
B|---------------|---------------------|---------------|---------------|
G|---------------|---------------------|---------------|---------------|
D|-8--8-8--8-8-8-|-10--10-10--10-10-10-|-5--5-5--5-5-5-|-7--7-7--7-7-7-|
A|-8--8-8--8-8-8-|-10--10-10--10-10-10-|-5--5-5--5-5-5-|-7--7-7--7-7-7-|
D|-8--8-8--8-8-8-|-10--10-10--10-10-10-|-5--5-5--5-5-5-|-7--7-7--7-7-7-|


Chorus
   Bb                C                  G
e|-----------------|------------------|-----------------|------------------|
B|-----------------|------------------|-----------------|------------------|
G|-----------------|------------------|-----------------|------------------|
D|-8-8-8-8-8-8-8-8-|-1010101010101010-|-5-5-5-5-5-5-5-5-|-5-5-5-5-5-5-5-5--|
A|-8-8-8-8-8-8-8-8-|-1010101010101010-|-5-5-5-5-5-5-5-5-|-5-5-5-5-5-5-5-5--|
D|-8-8-8-8-8-8-8-8-|-1010101010101010-|-5-5-5-5-5-5-5-5-|-5-5-5-5-5-5-5-5--|


Bridge
   F             G              D     F G  A  Bb A  G
e|----------------------------|-----------------------|
B|----------------------------|-----------------------|
G|----------------------------|-----------------------|
D|-3--3-5-5-5-5--5--5-7-7-7-7-|-0--0--3-5--7--8--7--5-|
A|-3--3----------5--5---------|-0--0--3-5--7--8--7--5-|
D|-3--3----------5--5---------|-0--0--3-5--7--8--7--5-|


Hope you guys find this useful, done my best to make it easy to understand. For rhythm, 
the chords are just above the tab :) Obviously you'll need to listen to the record to 
get an idea of timing for the riffs but it should be pretty simple.

There is a lead part in the pre-chorus which is a bit weird, real difficult to hear 
properly. I've put the notes in, but to be honest it sounds pretty cool if you just use that 
as a guide and improv a bit over it, that's what we do when we do it live :)

Search youtube for the song and there's a dude who plays it if you get stuck :)

************************************

| /   slide up
| \   slide down
| h   hammer-on
| p   pull-off
| ~   vibrato
| +   harmonic
| x   Mute note
| b   Bend
| pb  Pre-bend
| br  Bend release
| pbr Pre-bend release
| brb Bend release bend

************************************
Tap to rate this tab
 
# A B C D E F G H I J K L M N O P Q R S T U V W X Y Z