Song name
# A B C D E F G H I J K L M N O P Q R S T U V W X Y Z

Youth Battery - Lifeless Dread tab

A song from a german grunge band Youth Battery

A very simple cool song


verse:  4x
this part muted
-----------------------------------------------------|
-----------------------------------------------------|
------------------------2-2-2-2-2-2-5-5-5-5-5-5------|
2-2-2-2-2-2-5-5-5-5-5-5-2-2-2-2-2-2-5-5-5-5-5-5------|
2-2-2-2-2-2-5-5-5-5-5-5-0-0-0-0-0-0-3-3-3-3-3-3------|
0-0-0-0-0-0-3-3-3-3-3-3------------------------------|

refrain:
the same one very loud

hook:
4x
--------------------------------------------------------|
--------------------------------------------------------|
--------------------------------------------------------|
2-2-2--------------2-2-2-------5~7~5--------------------|
2-2-2-7~5----------2-2-2-----7~-------------------------|
0-0-0-----7~5------0-0-0--------------------------------|

2-2-2-2-2-2-2-----------------------------------------|
2-2-2-2-2-2-2-----------------------------------------|
0-0-0-0-0-0-0 ..................... >.. last refrain--| 6x

i have seen the band live.
hope the tabs are correct
i have seen the lyriks on the page


greeetz!

www.youth-battery.com
Tap to rate this tab
 
# A B C D E F G H I J K L M N O P Q R S T U V W X Y Z