Song name
# A B C D E F G H I J K L M N O P Q R S T U V W X Y Z

Youth Battery - Strawberry tab

Strawberry from youth battery

clean 4x
distortion 4x
----------------------------------|
----------------------------------|
-----5-5-------7-7-7-7-7-7--------|
2-2--5-5--5-5--7-7-7-7-7-7--------|
2-2--2-2--5-5--5-5-5-5-5-5--------|
0-0-------3-3---------------------|

distortion 4x

---------------)------------------|
--------------3-------------------|
5-5-5-5-5-5-0---------------------|
5-5-5-5-5-5-2---------------------|
3-3-3-3-3-3-2---------------------|

distortion only one time

----------------------------------|
----------------------------------|
--------------------------------5-|
2-------------------------------5-|
2--------777777777777777777777777-|
0---------------------------------|


love and peace

wolkenlos
Tap to rate this tab
 
# A B C D E F G H I J K L M N O P Q R S T U V W X Y Z