Guitaretab - guitar tabs
Song name
# A B C D E F G H I J K L M N O P Q R S T U V W X Y Z

Youth Brigade - Spies For Life tab

I found bass tabs but no guitar so I'm tabbing it myself
/ (slur)
x (palm mute)

Intro 
e-------------------------------------------------------------
b-------------------------------------------------------------
G----------------------------------------------------4--------
D-------5--------------5-------------5------------55-4--------
A---3/6---6-------3/56---6------3/56---6---10-----55-2--------
E--------------------------6-3-----------6--------33----------
(Not sure if the D(5) in the second and third bar is the right note,
it makes the rhythm right though)

Verse 1 X4 (fast tempo, each note 8 times)
"I could Be wrong I've seen your face before
Not sure what side your one but be sure this is war..."
G-55-5555--88-8888------------------------------------------
D-55-5555--88-8888--88-8888--55-5555------------------------
A-33-3333--66-6666--88-8888--55-5555------------------------
E-------------------66-6666--33-3333------------------------

Intelude 1 (Palm muted, each note 4 times)
"We're on a missions don't get in our way 
God is the leader doesn't matter what you say..."
G-x55-5--x88-8---------------x55-5--x88-8-------------------------
D-x55-5--x88-8--x88-8--5555--x55-5--x88-8--x88-8--x55-5-----------
A-x33-3--x66-6--x88-8--5555--x33-3--x66-6--x88-8--x55-5-----------
E---------------x66-6--3333----------------x66-6--x33-3-----------

G-x55-5--x88-8---------------x55-5--x88-8-------------------------
D-x55-5--x88-8--x88-8--5555--x55-5--x88-8--88--9------------------
A-x33-3--x66-6--x88-8--5555--x33-3--x66-6--88--9------------------
E---------------x66-6--3333----------------66--7------------------
(hit the last A#(66)B(7) when the lyrics say "that agree with us")
[ Tab from: http://www.guitaretab.com/y/youth-brigade/47087.html ]
Verse 2 (same tempo as verse 1 the last bar has a different rhythm same notes though)
"Infiltrate Blasphemous strong holds
Publish their names and put them on death row..."
G-55-5555--88-8888----------------------------------------------------
D-55-5555--88-8888--88-8888--55-5555----------------------------------
A-33-3333--66-6666--88-8888--55-5555----------------------------------
E-------------------66-6666--33-3333----------------------------------
(that riff X3, The last bar goes as followed)
G-5-5--8888-----------------------------------------
D-5-5--8888--8-8--5555------------------------------
A-3-3--6666--8-8--5555------------------------------
E------------6-6--3333------------------------------

Chorus (Hit each note once and let it ring for as many beats as it says beside each note)
"Oh no, we see the writing on the walls the lord has spoken"
G----------8----------------------------8-------------------4--
D-5--------8(x8)--8------5------5-------8(x8)--8------5555--4--
A-5(x16)---6------8(x8)--5(x8)--5(x16)--6------8(x8)--5555--2--
E-3---------------6------3------3--------------6------3333-----
(hit the last G(3333) B(2) when the lyrics say "how can you stop us"
Repeat Verse 2
Repeat Chorus

Bridge(Play x2 Guitar only part same rythm as the last bar of verse 2)
G-5-5--8888--------------------------------------
D-5-5--8888--8-8--5555---------------------------
A-3-3--6666--8-8--5555---------------------------
E------------6-6--3333---------------------------

Interlude repeat 
"We will take back our communities
From you perverted homosexual baby killing freaks..."

Verse 2 repeat
"We've had enough of this liberal facade
Destroy the nuts and hippies and anarchocommie squads..."

Chorus(x4, after 4 bars the outro is just the intro kinda faded out)
Order of song
Intro 
Verse 1
Interlude
Verse 2
Chorus
Verse 2
Chorus
Bridge
Interlude
Verse 2
Chorus
Outro

That's the whole song any questions email me at Tster118@yahoo.com
Related for Spies For Life tab
Spies For Life chords by Youth Brigade