Song name
# A B C D E F G H I J K L M N O P Q R S T U V W X Y Z

Youth Group - Forever Young tab

Capo on 4th fret
 -listen to song to get the picking pattern
 - Listen to song so you know when to start singing
e|--------------------------------------------------------------------|
B|----3----3----3-----3-----3-----3----3------3----3-----3-----3-----3|
G|--------------------------------------------------------------------|
D|--------------------------------------------------------------------|
A|--------------------------------------------------------------------|
E|-33----33----3----33----33----3----33-----33----3----33----33----3--|

e|--------------------------------------------------------------------|
B|---0-----0----0-----0-----0-----0---0-----0----0-----0-----0----0---|
G|--------------------------------------------------------------------|
D|--------------------------------------------------------------------|
A|----------------------------------33----33----3----33----33----3----|
E|-00----00----0----00----00----0-------------------------------------|

e|--------------------------------------------------------------------|
B|---0-----0----0-----0-----0----0----0-----0----0-----0-----0----0---|
G|--------------------------------------------------------------------|
D|-00----00----0----00----00----0---22----22----2----22----22----2----|
A|--------------------------------------------------------------------|
E|--------------------------------------------------------------------|

e|--------------------------------------------------------------------|
B|---0-----0----0-----0-----0----0---0-----0----0-----0-----0----0----|
G|--------------------------------------------------------------------|
D|---------------------------------22----22----2----22----22----2-----|
A|-33----33----3----33----33----3-------------------------------------|
E|--------------------------------------------------------------------|

e|--------------------------------------------------------------------|
B|---0-----0----0-----0-----0----0---3-----3----3-----3-----3----3----|
G|--------------------------------------------------------------------|
D|-00----00----0----00----00----0-------------------------------------|
A|--------------------------------------------------------------------|
E|---------------------------------33----33----3----33----33----3-----|

e|--------------------------------------------------------------------|
B|---0-----0----0-----0-----0----0---0-----0----0-----0-----0----0----|
G|--------------------------------------------------------------------|
D|--------------------------------------------------------------------|
A|---------------------------------33----33----3----33----33----3-----|
E|-00----00----0----00----00----0-------------------------------------|

e|----------------------------------|
B|---0-----0----0-----0-----0----0--|
G|----------------------------------|
D|-00----00----0----00----00----0---|
A|----------------------------------|
E|----------------------------------|

Verse 1-3

Let's dance in style, lets dance for a while

Heaven can wait we're only watching the skies

Hoping for the best but expecting the worst

Are you going to drop the bomb or not?

Let us die young or let us live forever

We don't have the power but we never say never

Sitting in a sandpit, life is a short trip

The music's for the sad men

Can you imagine when this race is won

Turn our golden faces into the sun

Praising our leaders we're getting in tune

The music's played by the mad men



Chorus

G           G/f#	 Em           Cadd9
Forever young, I want to be forever young

D/F#	        Em                 Cadd9     D/F#
do you really want to live forever, forever forever

G           G/f#	 Em           Cadd9
Forever young, I want to be forever young

D/F#	        Em                 Cadd9     D/F#
do you really want to live forever? Forever forever



Instrumental

G, G/f#, Em, Cadd9, D/F#, Em, Cadd9, D/F#




Verses: 4-5

G	       G/f#		        Em
Some are like water, some are like the heat

            Cadd9                  D/F#
Some are a melody and some are the beat

           Em 			 Cadd9
Sooner or later they all will be gone

		      D/F#
why don't they stay young


G	    G/f#		   Em
It's so hard to get old without a cause

		Cadd9			D/F#
I don't want to perish like a fleeing horse

		Em 	    Cadd9
Youth's like diamonds in the sun

		   D/F#
and diamonds are forever


Chorus

G           G/f#	 Em           Cadd9
Forever young, I want to be forever young

D/F#	        Em                 Cadd9     D/F#
do you really want to live forever, forever Forever

G           G/f#	 Em           Cadd9
Forever young, I want to be forever young

D/F#	        Em                 Cadd9     D/F#
do you really want to live forever? Forever Forever


Instrumental : G, G/f#, Em, Cadd9, D/F#, Em, Cadd9, D/F# X2


G           G/f#	 Em           Cadd9
Forever young, I want to be forever young

D/F#	        Em                 Cadd9     D/F#
do you really want to live forever, forever Forever

G           G/f#	 Em           Cadd9
Forever young, I want to be forever young

D/F#	        Em                 Cadd9     D/F#
do you really want to live forever, forever

Hope you Enjoy the song :) peace
Tap to rate this tab
# A B C D E F G H I J K L M N O P Q R S T U V W X Y Z