Song name
# A B C D E F G H I J K L M N O P Q R S T U V W X Y Z

Youth Group - Skeleton Jar tab

Youth Group is a band from Australia. Established in 2001. they just fninished releasing
their second album "Skeleton Jar". 'Skeleton Jar' is the band's second album and the
talents of singer/songwriter/guitarist Toby Martin shine through on this album like a
beacon. Left field, yet highly emotive lyrics navigate their way across varied landscapes
of pop, folk, and indie rock terrain with his uniquely pure voice. From the haunting
singles 'Skeleton Jar' and 'Shadowland' to live favorites "See-Saw" and 'Piece Of Wood,
Youth Group present an eclectic feast, with a darker and less poppier approach.

check them out:
http://www.youthgroup.com.au/


INTRO
E-|----------------------------------|
B-|----------------------------------|
G-|----------------------------------|
D-|---9---7---6---6---6---6---6---6--|(3x)
A-|-0---0---0---0---4---4---4---4----|
E-|----------------------------------|

E-|------------------------------|
B-|------------------------------|
G-|----------------6-----6-------|
D-|---7---7---7------7-----7---7-|
A-|5---5---5---5-------5-----5---|
E-|------------------------------|

E-|----------------------------------|
B-|----------------------------------|
G-|----------------------------------|
D-|---9---7---6---6---6---6---6---6--|(3x)
A-|-0---0---0---0---4---4---4---4----|
E-|----------------------------------|

E-|-------------------------------------|
B-|-------------------------------------|
G-|-------------------------------------|
D-|------7---7--7-7-7-7-9-9-9-9-9-9-9-9-|
A-|---5----5----5-5-5-5-7-7-7-7-7-7-7-7-|
E-|-------------------------------------|

1ST CHORUS:
E-|-----------------------------------|
B-|-0-0-0-0-0-0-0-0--0-0-0-0-0-0-0-0--|
G-|-6-6-6-6-6-6-6-6--6-6-6-6-6-6-6-6--|
D-|-7-7-7-7-7-7-7-7--6-6-6-6-6-6-6-6--|(x 4)
A-|-0-0-0-0-0-0-0-0--4-4-4-4-4-4-4-4--|
E-|-----------------------------------|

E-|------------------------------------------------------------------|
B-|------------------------------------------------------------------|
G-|--7-6-7-6-7-6-7-6-7-6-7-6-7-6-7-6-----------------9-9-9-7-7-7-6-6-|
D-|----------------------------------6-6-6-6-6-6-6-6-----------------|
A-|------------------------------------------------------------------|
E-|------------------------------------------------------------------|

E-|------------------------------------------------------|
B-|------------------------------------------------------|
G-|--7-6-7-6-7-6-7-6-7-6-7-6-7-6-7-6--6-6--6-6--6-6--6-6-|
D-|-----------------------------------6-6--6-6--6-6--6-6-|
A-|-----------------------------------4-4--4-4--4-4--4-4-|
E-|------------------------------------------------------|

E-|----------------------------------|
B-|----------------------------------|
G-|----------------------------------|
D-|---9---7---6---6---6---6---6---6--|(3x)
A-|-0---0---0---0---4---4---4---4----|
E-|----------------------------------|

E-|------------------------------|
B-|------------------------------|
G-|----------------6-----6-------|
D-|---7---7---7------7-----7---7-|
A-|5---5---5---5-------5-----5---|
E-|------------------------------|

E-|----------------------------------|
B-|----------------------------------|
G-|----------------------------------|
D-|---9---7---6---6---6---6---6---6--|(3x)
A-|-0---0---0---0---4---4---4---4----|
E-|----------------------------------|

E-|-------------------------------------|
B-|-------------------------------------|
G-|-------------------------------------|
D-|------7---7--7-7-7-7-9-9-9-9-9-9-9-9-|
A-|---5----5----5-5-5-5-7-7-7-7-7-7-7-7-|
E-|-------------------------------------|

E-|-----------------------------------|
B-|-0-0-0-0-0-0-0-0--0-0-0-0-0-0-0-0--|
G-|-6-6-6-6-6-6-6-6--6-6-6-6-6-6-6-6--|
D-|-7-7-7-7-7-7-7-7--6-6-6-6-6-6-6-6--|(x 4)
A-|-0-0-0-0-0-0-0-0--4-4-4-4-4-4-4-4--|
E-|-----------------------------------|

E-|------------------------------------------------------------------|
B-|------------------------------------------------------------------|
G-|--7-6-7-6-7-6-7-6-7-6-7-6-7-6-7-6-----------------9-9-9-7-7-7-6-6-|(3x)
D-|----------------------------------6-6-6-6-6-6-6-6-----------------|
A-|------------------------------------------------------------------|
E-|------------------------------------------------------------------|

E-|--------------------------------------------------------------|
B-|--------------------------------------------------------------|
G-|--7-6-7-6-7-6-7-6-7-6-7-6-7-6-7-6--6-6--6-6--6-6-6-6-6-6-6-6--|
D-|-----------------------------------6-6--6-6--6-6-6-6-6-6-6-6--|
A-|-----------------------------------4-4--4-4--4-4-4-4-4-4-4-4--|
E-|--------------------------------------------------------------|

E-|--------------------------------------------------------------------|
B-|-0-0-0-0-0-0-0-0--0-0-0-0-0-0-0-0--0-0-0-0-0-0-0-0--0-0-0-0-0-0-0-0-|
G-|-6-6-6-6-6-6-6-6--6-6-6-6-6-6-6-6--6-6-6-6-6-6-6-6--7-7-7-7-7-7-7-7-|(4x)
D-|-7-7-7-7-7-7-7-7--7-7-7-7-7-7-7-7--6-6-6-6-6-6-6-6--7-7-7-7-7-7-7-7-|
A-|-0-0-0-0-0-0-0-0--0-0-0-0-0-0-0-0--4-4-4-4-4-4-4-4--5-5-5-5-5-5-5-5-|
E-|--------------------------------------------------------------------|


E-|---------------------------------------------------------------------|
B-|---------------------------------------------------------------------|
G-|---------------------------------------------------------------------|
D-|-14-14-14-12-12-12-11-11-(6x)--9-9-9-6-6-6-6-6-6--7-7-7-4-4-4-4-4-4--|
A-|-0--0--0--0--0--0--0--0----------------------------------------------|
E-|---------------------------------------------------------------------|

E--12-12-12-10-10-10-9-9(6x)-12-12-12-12-12-12-12-12/14-14-14-14-14-14-14-14-|
B-|--------------------------------------------------------------------------|
G-|--------------------------------------------------------------------------|
D-|--------------------------------------------------------------------------|
A-|--------------------------------------------------------------------------|
E-|--------------------------------------------------------------------------|

E-|-------------------------------------|
B-|-0-0-0-0-0-0-0-0---------------------|
G-|-6-6-6-6-6-6-6-6--6-6--6-6--6-6--6-6-|
D-|-7-7-7-7-7-7-7-7--6-6--6-6--6-6--6-6-|
A-|-0-0-0-0-0-0-0-0--4-4--4-4--4-6--4-4-|
E-|-------------------------------------|
Tap to rate this tab
# A B C D E F G H I J K L M N O P Q R S T U V W X Y Z