Guitaretab - guitar tabs
Song name
# A B C D E F G H I J K L M N O P Q R S T U V W X Y Z

Youth Group - Piece Of Wood tab

Youth group - Piece of wood

-Standard tune-

This is most of the song. Is very easy to play once you get the rhythm, just pay 
to it and practice.

Gtr. 1 - Lead rhythm

**pay attention to the changes in the patterns
Intro (x8) then x3        and       x4
|-------------|        |--------------|
|----1------1-|        |----1-------1-|
|---------0---|        |----------0---|
|------2p3----|        |------2p3-----|
|--3----------|        |--0-----------|
|-------------|        |--------------|

This is how you change from the second to the first rhythm (e.g. 0:15, 0:21, 0:28, etc.)
|-----------------------------------------|
|----1---------1----1----1-----1--------1-|
|------------0-----------------------0----|
|-------2p3-----------0----------2p3------|
|--0--------------0---------3-------------|
|-----------------------------------------|

Bridge (0:35, 1:15, 1:41 & 2:48)
   x4           then            x5
|----------------||----------------0--|
|-----0--------0-||-----1-------------|
|-------------0--||-------------0-----|
|--------0p2-----||--------2p3--------|
|----------------||-------------------|
|--3-------------||--3----------------|

**Note: The first pattern also sound kinda good if you played like these
|---------------|
|----1--------1-|
|-----------0---|
|-------0p2-----|
|--3------------|
|---------------|

Gtr. 2
[ Tab from: http://www.guitaretab.com/y/youth-group/69604.html ]
1:23  1:40
Repeat a lot
|-0----------|
|---1-----1--|
|------0-----|
|------------|
|------------|
|------------|

1:41
|---------------------------------------------------------------------------------------|
|--0-------0-------0--------0------1--3--5-5---3--1--3--5--0--1--1--1--1--1--1--1--1--1-|
|----4---4---4---4---4---4---4---4--0--0------0--0--0--0--0--0--0--0--0--0--0--0--0--0--|
|-----5--------5-------5--------5-------------------------------------------------------|
|---------------------------------------------------------------------------------------|
|---------------------------------------------------------------------------------------|

1:59, 2:12, 2:19, 2:26 & 2:40
|-0-------0------0----|
|---1-------1------1--|
|------0------0-------|
|---------------------|
|---------------------|
|---------------------|

2:05
|-0-----------0-------|
|---1----3-------3-3--|
|------0----0---------|
|---------------------|
|---------------------|
|---------------------|

2:33
|--0-------|
|----1--1--|
|----------|
|----------|
|----------|
|----------|

2:46
|---------(0)-------------------------------------------|
|--(0p2p4)----(1)--1--0-----0-----0-----1-----3--5------|
|------------------------0-----0-----0-----0------7--5--|
|-------------------------------------------------------|
|-------------------------------------------------------|
|-------------------------------------------------------|
Related for Piece Of Wood tab