Song name
# A B C D E F G H I J K L M N O P Q R S T U V W X Y Z

Youth Lagoon - Daydream tab

-------------------------------------------------------------------------------
			     DAYDREAM - Youth Lagoon
-------------------------------------------------------------------------------
Tabbed by: Alex Gibbons / AlexGibbo27
Email: alexgibbo5@hotmail.com

Tuning: Standard

This is the tab for the neat little riff that comes in at 0:46. It's purely by ear and 
one of the first tabs I've done so please point out any suspected mistakes before giving 
a bad rating.

0:46

e|-------------------------------|-------------------------------------|
B|-10-8-10---8-------------------|-10-8-10---8-10/12-13-13-13-13-13-13-|
G|---------9----7-7-7h9h11-9-7---|---------9---------------------------|
D|-----------------------------9-|-------------------------------------|
A|-------------------------------|-------------------------------------|
E|-------------------------------|-------------------------------------|

e|-------------------------------|-------------------------------------|
B|-10-8-10---8-------------------|-12b13-12-13-13-15b17-13-15 15-------|
G|---------9----7-7-7h9h11-9-7---|-------------------------------------|
D|-----------------------------9-|-------------------------------------|
A|-------------------------------|-------------------------------------|
E|-------------------------------|-------------------------------------|

e|-------------------------------|-------------------------------------|
B|-10-8-10---8-------------------|-10-8-10---8-10/12-13-13-13-13-13-13-|
G|---------9----7-7-7h9h11-9-7---|---------9---------------------------|
D|-----------------------------9-|-------------------------------------|
A|-------------------------------|-------------------------------------|
E|-------------------------------|-------------------------------------|

e|-------------------------------|-------------------------------------|
B|-10-8-10---8-------------------|-10-8-10---8-10/15-15-15-15-15-15-15-|
G|---------9----7-7-7h9h11-9-7---|---------9---------------------------|
D|-----------------------------9-|-------------------------------------|
A|-------------------------------|-------------------------------------|
E|-------------------------------|-------------------------------------|

to 1:17
Tap to rate this tab
# A B C D E F G H I J K L M N O P Q R S T U V W X Y Z