Song name
# A B C D E F G H I J K L M N O P Q R S T U V W X Y Z

Youth Lagoon - July tab

Youth Lagoon - July

I have tabbed this song out the way youtube cover artist David Deutsch plays it.  He 
basically takes the piano, synth and baseline of the song and converts them all to the guitar.

Open D Tuning, capoed on 3rd Fret

DAGF#AD

Intro:
e--0--0--0--0--0--0--|
B--0--7--0--5--7--0--|
G--0--7--0--5--7--0--|
D--0--0--0--0--0--0--|
A--0--0--0--X--0--0--|
E--0--7--0--5--7--0--|

   Ah ah ah   ah ah ah   ah ah ah   ah ah ah
e--4--4--2----0--0--0----4--4--2----7--7--7--|
B--0--0--0----5--5--7----0--0--0----0--0--0--|
G--0--0--0----5--5--5----0--0--0----5--5--5--|
D--0--0--0----0--0--0----0--0--0----0--0--0--|
A--0--0--0----X--X--X----2--2--2----X--X--X--|
E--0--0--0----5--5--5---------------5--5--5--|

Right where the kick pedal comes in:
e-11----7----4----0---11----7----4----7--|
B--0----0----0----5----0----0----4----0--|
G--0----5----0----5----0----5----0----5--|
D--0----0----0----0----0----0----0----0--|
A--0----X----2----X----0----X----2----X--|
E--0----5---------5----0----5---------5--|

End of the song jam:
e--0----0----0----5--|
B--0----5----2----5--|
G--0----5----3----5--|
D--0----0----0----5--|
A--0----X----2----5--|
E--0----5---------5--|

Okay well thatís all.  Obviously this isnít perfect so if you have any suggestions 
please feel free to leave a comment!  Thanks and remember to rate this tab 5 stars!
Tap to rate this tab
# A B C D E F G H I J K L M N O P Q R S T U V W X Y Z