Song name
# A B C D E F G H I J K L M N O P Q R S T U V W X Y Z

Youth Lagoon - Daydream tab

Hey, there is another tab on here but I think this is more accurate, thanks for looking.

E|------------------------------------------|
B|--10--8--10-----8-------------8-----------|
G|-------------9-----7--7--7h9-----7--5-----|
D|---------------------------------------7--|
A|------------------------------------------|
E|------------------------------------------|

E|--------------------------------------------------|
B|--10--8--10-----8--10/12--13--13--13--13--13--13--|
G|-------------9------------------------------------|
D|--------------------------------------------------|
A|--------------------------------------------------|
E|--------------------------------------------------|

E|------------------------------------------|
B|--10--8--10-----8-------------8-----------|
G|-------------9-----7--7--7h9-----7--5-----|
D|---------------------------------------7--|
A|------------------------------------------|
E|------------------------------------------|

E|-------------------------------------|
B|--15------13--13--15/17--13--15--15--|
G|------14-----------------------------|
D|-------------------------------------|
A|-------------------------------------|
E|-------------------------------------|
Tap to rate this tab
# A B C D E F G H I J K L M N O P Q R S T U V W X Y Z