Song name
# A B C D E F G H I J K L M N O P Q R S T U V W X Y Z

Youth Liberation - Why Today tab

Artist- Youth Liberation
SOng- Why Today
CD- Why Today
Tabbed by-Adam Van Arnem (lead guitarest and singer for the band!)

Intro    x2

>-----------------------------------|
>-----------------------------------|
>--5--5-----------------------------|
>--5--5--5--5---3--3---7--7---------|
>--3--3--5--5---3--3---7--7---------|
>---------3--3---1--1---5--5--------|

verses  x6

>-----------------------------------|
>-----------------------------------|
>--5-5----------3-3-----------------|
>--5-5---3-3---3-3------------------|
>--3-3---3-3---1-1------------------|
>---------1-1-----------------------|

Chorus x2

>------------------------------------|
>------------------------------------|
>--5--5------------------------------|
>--5--5--5--5---3--3---7--7----------|
>--3--3--5--5---3--3---7--7----------|
>---------3--3---1--1---5--5---------|

That's it! Also Check out our CD it should be out in like september 2001. So get it cause we are the next 
thing in south florida since New Found Glory!
Tap to rate this tab
# A B C D E F G H I J K L M N O P Q R S T U V W X Y Z