Song name
# A B C D E F G H I J K L M N O P Q R S T U V W X Y Z

Youth Of Today - Brake Down The Walls tab

verse

E|-------------------------------|
B|-------------------------------|
G|--9--9--7-5-7-9--12--11-12-11--|
D|--9--9--7-5-7-9--12--11-12-11--|
A|--7--7--5-3-5-7--10--9--10-9---|
E|-------------------------------|

chorus

E|---------------------------------|
B|---------------------------------|
G|------------------4-4-4-4-9--9---|
D|--2-2-2-2-5-5-5-5-4-4-4-4-9--9---|
A|--2-2-2-2-5-5-5-5-2-2-2-2-7--7---|
E|--0-0-0-0-3-3-3-3----------------|

by Mindaugs
Tap to rate this tab
# A B C D E F G H I J K L M N O P Q R S T U V W X Y Z