Song name
# A B C D E F G H I J K L M N O P Q R S T U V W X Y Z

Youth Of Today - Make A Change tab

-------------------------------------------------------------------------------
                         MAKE A CHANGE - Youth Of Today
-------------------------------------------------------------------------------

BY DJOLE   fatdjole@ptt.yu

    Intro
E|------------------------------------|
B|------------------------------------|
C|---------------------------------\--|
D|--7-7-7-7--5-5-5--10-10-10----------|x4
A|--7-7-7-7--3-3-3--8--8--8-----------|
E|--5-5-5-5---------------------------|

E|-------------------------------------------|
B|-------------------------------------------|
C|-------------------------14----------------|
D|--7--10--10--8--10--8--------10--8--10--8--|
A|--7--8---10--8--10--8--------10--8--10--8--|
E|--5------8---6--8---6--------8---6--8---6--|

    Verse
E|-------------------------------------|
B|-------------------------------------|
C|----------------------------------\--|
D|--7-7-7--10-10-10--10--8--10--8------|x4
A|--7-7-7--8--8--8---10--8--10--8------|
E|--5-5-5------------8---6--8---6------|

E|------------------------------------|
B|------------------------------------|
C|---------------------------------\--|
D|--7-7-7-7--5-5-5--10-10-10----------|x4
A|--7-7-7-7--3-3-3--8--8--8-----------|
E|--5-5-5-5---------------------------|

   Chorus
E|--------------------------     -----------------|
B|--------------------------     -----------------|
C|--------------------------\    -----------------|
D|--8-8--10--8--7--x-x-x-x-- |x3 --8-8--10--8--7--|
A|--8-8--10--8--7--x-x-x-x--/    --8-8--10--8--7--|
E|--6-6--8---6--5--x-x-x-x--     --6-6--8---6--5--|

E|-------------------------------------------|
B|-------------------------------------------|
C|-------------------------14----------------|
D|--7--10--10--8--10--8--------10--8--10--8--|
A|--7--8---10--8--10--8--------10--8--10--8--|
E|--5------8---6--8---6--------8---6--8---6--|

  Verse
E|-------------------------------------|
B|-------------------------------------|
C|----------------------------------\--|
D|--7-7-7--10-10-10--10--8--10--8------|x4
A|--7-7-7--8--8--8---10--8--10--8------|
E|--5-5-5------------8---6--8---6------|

E|------------------------------------|
B|------------------------------------|
C|---------------------------------\--|
D|--7-7-7-7--5-5-5--10-10-10----------|x4
A|--7-7-7-7--3-3-3--8--8--8-----------|
E|--5-5-5-5---------------------------|

   Chorus
E|--------------------------     -----------------|
B|--------------------------     -----------------|
C|--------------------------\    -----------------|
D|--8-8--10--8--7--x-x-x-x-- |x3 --8-8--10--8--7--|
A|--8-8--10--8--7--x-x-x-x--/    --8-8--10--8--7--|
E|--6-6--8---6--5--x-x-x-x--     --6-6--8---6--5--|

E|----------------------     ||
B|----------------------     ||
C|----------------------\    ||
D|--7--10--10--8--10--8- |x4 ||
A|--7--8---10--8--10--8-/    ||
E|--5------8---6--8---6-     ||
Tap to rate this tab
# A B C D E F G H I J K L M N O P Q R S T U V W X Y Z