Song name
# A B C D E F G H I J K L M N O P Q R S T U V W X Y Z

Youthmovies - If Youd Seen A Battlefield tab

Help us improve GuitareTab! Take a short survey!
http://www.myspace.com/youthmovies

This is a really good song. I hope you like it.
 I might have got it wrong but comment me
with suggestions and i will correct it.

Intro - Guitar 1.

e|------------------------------------------------------|
B|----5-----7-----5-----7------10------10-----3-----3---|
G|------0-----0-----0-----0-------0-------0-----0-----0-|   Repeat this how many times
D|------------------------------------------------------|   over. You can figure out the
A|--7-----7-----7-----7-----10------10------3-----3-----|    timing by listening to the
E|------------------------------------------------------|    song.

Guitar 2.

e|----------|   This is scattered throughout Guitar 1's part.
B|----3-5-3-|
G|----------|
D|--5-------|
A|----------|
E|----------|

Guitar 2.

|--7-5--------|   This bit is at the end of Guitar 1's intro; listen to see how 
|------7-5----|   many times he playes it.
|----------7--|
|-------------|
|-------------|
|-------------|
Related for If Youd Seen A Battlefield tab