Song name
# A B C D E F G H I J K L M N O P Q R S T U V W X Y Z

Yoyoy Villame - Dayang Dayang tab

Artist:Yoyoy Villame
Song:Dayang dayang
Friendster/ym: vinci_log@yahoo.com
Tabber: Emmanuel Recto Kho Puno -09215265641 igid
November 28, 2006

Base lang at lead tabs muna kasi d ko makuha yung rythm/chords niya


BASE

G|-----------------------------------------------| then...
D|-----------------------------------------------|
A|--------3------------3----------3-----------3--|
E|-0--5---------0--5--------0--5--------0--5-----|

G|-----------------------------------------------|
D|--------3------------3----------3-----------3--| ulit-ulit lang (choy)
A|-0--5---------0--5--------0--5--------0--5-----|
E|-----------------------------------------------|

Lead nanaman


e|--12-10-9-10-12-10-12---|
B|------------------------|
G|------------------------|
D|------------------------| x 2 tapos....
A|------------------------|
E|------------------------|

e|--12---10-----------------9---------------|
B|----------12-10-----10-12-------7--9-9/10-|
G|------------------------------------------|
D|------------------------------------------| ulit-ulit...
A|------------------------------------------|
E|------------------------------------------|



krrr... krrr...
hello dps and kalsangi. dedic8ed to myself and for yoyoy and my friends.
Musta mo dinha mga choy
yoyoy==http://www.fiql.com/playlists/the_best_of_yoyoy_villame/
       http://ceb.wikipedia.org/wiki/Yoyoy_Villame
Tap to rate this tab
 
# A B C D E F G H I J K L M N O P Q R S T U V W X Y Z