Song name
# A B C D E F G H I J K L M N O P Q R S T U V W X Y Z

Yppah - Never Mess With Sunday tab

-------------------------------------------------------------------------------
                             Never Mess With Sunday - Yppah
-------------------------------------------------------------------------------
Tabbed by: Christian


Tuning: Standard

e|-----------------------------------------------------------------------------|
B|-----------------------------------------------------------------------------|
G|-----------------------------------------------------------------------------|
D|----------7----7-----7----7-----7-----7----7-----7-----7-----7---------------|
A|------------------------------------5----5-----5-----5-----5-----------------|
E|-------6-----6----6-----6-----6----------------------------------------------|

e|-----------------------------------------------------------------------------|
B|-----------------------------------------------------------------------------|
G|-----------------------------------------------------------------------------|
D|--------7----7----7----7-----7----7-----7---------7---7----------------------|
A|-----3----3----3----3-----3-----3----3-----3---8---8-----8-------------------|
E|-----------------------------------------------------------------------------|
Tap to rate this tab
# A B C D E F G H I J K L M N O P Q R S T U V W X Y Z