Song name
# A B C D E F G H I J K L M N O P Q R S T U V W X Y Z

Yu Grupa - Ruza Vetrova tab

Hallo, my name is Vladimir, Im from Serbia.
Very nice and easy song, name of this song on serbian language means Rose Of Winds...
Very nice solo at the end! Watch out, the wind could take you away if you listen to this song!






                  YU Grupa - Ruza vetrova
                    (album: Rim, 1994)




Intro:

             Cadd9    Bm*             A7*      G
e|---------------------------------------------------|
B|---------------------------------------------------|
G|---------------------------------------------------|
D|-------------------------------------------0-0-----|
A|-------0-2-----------2---2-3-2h3p2---0---0---------|
E|---2/3-----3-0---0-3---------------3---------------|


             Cadd9    Bm*             A7*        G
e|---------------------------------------------------|
B|---------------------------------------------------|
G|---------------------------------------------------|
D|-------------------------0-0-----------------------|
A|-------0-2-----------2-------2h3p2---0-------------|
E|---2/3-----3-0---0-3---------------3-----3-2-3-3---|




              Cadd9         Bm*
Znas li da sam ja ruzu vetrova
          A7*       G
trazio za tebe danima
          Cadd9         Bm*
snagu pesnika medju ljudima
            A7*           G
da napravim pesmu od javora



Sva je moja vedra muzika
odmah posle tebe presahla
andjeli su moji otisli
uplakani, tuzni, nesrecni



Znas li da sam ja, ruzu vetrova
trazio za tebe danima
tugu ne skidam ni kad odmaram
bluz po sobi svuda rasipam



Sva je moja vedra muzika
odmah posle tebe presahla
andjeli su moji otisli
uplakani, tuzni, nesrecni



              F       C
Sav se zivot moj razlio
             D         G
k'o iz case vino prosuto
             F       C
sad vladaju dani utehe
            D
da se mora biti bez tebe



SOLO:


             Cadd9    Bm*             A7*      G
e|---------------------------------------------------|
B|---------------------------------------------------|
G|---------------------------------------------------|
D|-------------------------------------------0-0-----|
A|-------0-2-----------2---2-3-2h3p2---0---0---------|
E|---2/3-----3-0---0-3---------------3---------------|


             Cadd9    Bm*             A7*        G
e|---------------------------------------------------|
B|---------------------------------------------------|
G|---------------------------------------------------|
D|-------------------------0-0-----------------------|
A|-------0-2-----------2-------2h3p2---0-------------|
E|---2/3-----3-0---0-3---------------3-----3-2-3-3---|


                  Cadd9      Bm*                  A7*      G
e|-------------------------------------------------------------|
B|-------------------------------------------------------------|
G|---------------------------------5/7-7-----------------7-7---|
D|------7-9h10p9-------------7/9---------9h10p9----7---7-------|
A|---10----------10-7---7~-5--------------------10-------------|
E|-------------------------------------------------------------|


                  Cadd9      Bm*                  A7*          G
e|------------------------------------------------------------------|
B|------------------------------------------------------------------|
G|---------------------------------5/7-7----------------------------|
D|------7-9h10p9-------------7/9---------9h10p9----7---10-9-10-10---|
A|---10----------10-7---7~-5--------------------10------------------|
E|------------------------------------------------------------------|


             Cadd9      Bm*                A7*                  G
e|---5/7-8-7-5-3---3-0---7---10-10-7h8p7-3-3/5---5/7-10-7\5-3-5/7---|
B|---------------------3--------------------------------------------|
G|------------------------------------------------------------------|
D|------------------------------------------------------------------|
A|------------------------------------------------------------------|
E|------------------------------------------------------------------|


             Cadd9      Bm*                A7*
e|---5/7-8-7-5-3---3-0---7---10-10-7h8p7-3-3/5---|
B|---------------------3-------------------------|
G|-----------------------------------------------|
D|-----------------------------------------------|
A|-----------------------------------------------|
E|-----------------------------------------------|


                                       G
e|-----------------------------------------------3-2-5-3-10---7---|
B|---8-7-10-7---------------------------------3-5-----------------|
G|-----------7-9-7------------0-2------0-2-2/4--------------------|
D|------------9-9-7-9\-5-7-0-2------------------------------------|
A|----------------------------------------------------------------|
E|----------------------------------------------------------------|



Used chords:

        EADGBe
Cadd9---x32033
Bm*-----x20033
A7*-----x02033
G-------320033
F-------133211
D-------xx0232


| /  slide up
| \  slide down
| h  hammer-on
| p  pull-off
| ~  vibrato


Any comments post me at tordajav@yahoo.com
Tap to rate this tab
# A B C D E F G H I J K L M N O P Q R S T U V W X Y Z