Song name
# A B C D E F G H I J K L M N O P Q R S T U V W X Y Z

Yu Grupa - Crni Leptir tab

Yu Grupa - Crni Leptir
Tabovi i akordi - Bozo

Uvod:

(Em)    G              Am           G      D        Em        D             G              Em
e-------------------------------------------------------------------------------------------------|
B--8-10-10/12--12-10-8-8/10--10-8-----------------------------------------------------------------|
G-9------------------------------11-11/12--11-12-11-7h9--7-9-9/11--11-9-11-11/12--11-12-11-7h9-7-9|
D-------------------------------------------------------------------------------------------------|
A-------------------------------------------------------------------------------------------------|
E-------------------------------------------------------------------------------------------------|

Strofa:

   Em           D                Em
e-----------------------------------|
B-8------8--------------------------|
G--11-9---11-9--11-11--11/12-11-9-9-|
D-----------------------------------|
A-----------------------------------|
E-----------------------------------|

Refren:

    Em G   D      Em   Em G      D       Em   Em G   D      Em   G         D      Em
e-------------------------------------------------------------------------------------|
B------12--10--8----------12--8-8h10--8----------12--10--8----------------------------|
G--7-9----------11-9--7-9--------------11-9--7-9----------11-9--9/12-12-12-11-9-7-7h9-|
D-------------------------------------------------------------------------------------|
A-------------------------------------------------------------------------------------|
E-------------------------------------------------------------------------------------|
Tap to rate this tab
 
# A B C D E F G H I J K L M N O P Q R S T U V W X Y Z